PrimaNota.ru - самый крупный в мире бесплатный архив песенных текстов, аккордов, табулатур и нот


Gg Allin - Antisocial Masturbator - бас-таба, видео

Регистрация Запомнить меня
Войти через:  Facebook Google Twitter Vk Yandex Mail.ru

Gg Allin - Antisocial Masturbator - бас-таба, видео

Печатать
Просмотров: 143
Whole Song
G------------------------------------|-----------------------------|
D------------------------------------|-----------------------------|
A-------------------7--7-7--3-3-3-3--|-----------------------------|
E--0--3--0--3--0-0-------------------|--0-----0-----0-----0-----0--|
                                       "an"   "ti"  "so" "cial" "mas" etc.

Outro
G----------------------|
D----------------------|
A-----5--------8-8-8-8-|
E--5-----5--7----------|
Добавлено: 18.07.2015
Другие материалы по этой песне:
  • Аккорды и текст

Страница создана 18.07.2015
http://primanota.ru/gg-allin/antisocial-masturbator-chords.htm
Привет, Гость.
Предлагаем пройти революционный курс по гитаре.
Подарок от PrimaNota.Ru, забирай!