PrimaNota.ru - самый крупный в мире бесплатный архив песенных текстов, аккордов, табулатур и нот


Gg Allin - War In My Head - Im Your Enemy - таба, бас-таба, видео

Регистрация Запомнить меня
Войти через:  Facebook Google Twitter Vk Yandex Mail.ru

Gg Allin - War In My Head - Im Your Enemy - таба, бас-таба, видео

Печатать
Просмотров: 122
Verse
E-------------------------------------------------------|
B-------------------------------------------------------|
G-------------------------------------------------------|
D-8--8--8----6--6--6----4--4--4----6--6--6----8--8--8---|
A-8--8--8----6--6--6----4--4--4----6--6--6----8--8--8---|
E-6--6--6----4--4--4----2--2--2----4--4--4----6--6--6---|

E-------------------------------------------------------|
B-------------------------------------------------------|
G-------------------------------------------------------|
D-8--8--8----6--6--6----4--4--4----6--6--6----8---------|
A-8--8--8----6--6--6----4--4--4----6--6--6----8---------|
E-6--6--6----4--4--4----2--2--2----4--4--4----6---------|


Chorus                           x8
E----------------------------------|-----------------------------|
B----------------------------------|-----------------------------|
G----------------------------------|-----------------------------|
D-8-8-8-8--6-6-6-6---4--4-4--4-4-4-|-6-6-6-6-6-6-6-6---8---------|
A-8-8-8-8--6-6-6-6---4--4-4--4-4-4-|-6-6-6-6-6-6-6-6---8---------|
E-6-6-6-6--4-4-4-4---2--2-2--2-2-2-|-4-4-4-4-4-4-4-4---6---------|
Добавлено: 28.08.2015
Другие материалы по этой песне:
  • Аккорды и текст

Страница создана 18.07.2015
http://primanota.ru/gg-allin/war-in-my-head-im-your-enemy-chords.htm
Привет, Гость.
Предлагаем пройти революционный курс по гитаре.
Подарок от PrimaNota.Ru, забирай!