PrimaNota.ru - самый крупный в мире бесплатный архив песенных текстов, аккордов, табулатур и нот


Gg Allin - Sister Sodomy - таба, бас-таба, видео

Регистрация Запомнить меня
Войти через:  Facebook Google Twitter Vk Yandex Mail.ru

Gg Allin - Sister Sodomy - таба, бас-таба, видео

Печатать
Просмотров: 109
Whole song
E-----------------------------------|-----------------------------------|
B-----------------------------------|-----------------------------------|
G-8-8-8-8-----------8-8-8-8-8-8-8-8-|-5-5-5-5--8-8-8-8------------------|
D-8-8-8-8--8-8-8-8--8-8-8-8-8-8-8-8-|-5-5-5-5--8-8-8-8--8-8-8-8-8-8-8-8-|
A-6-6-6-6--8-8-8-8--6-6-6-6-6-6-6-6-|-3-3-3-3--6-6-6-6--8-8-8-8-8-8-8-8-|
E----------6-6-6-6------------------|-------------------6-6-6-6-6-6-6-6-|

E----------------------------------------------------------------------|
B----------------------------------------------------------------------|
G-8-8-8-8-8-8-8-8-----------5-5-5-5--8-8-8-8-----------8-8-8-8-8-8-8-8-|
D-8-8-8-8-8-8-8-8--8-8-8-8--5-5-5-5--8-8-8-8--8-8-8-8--8-8-8-8-8-8-8-8-|
A-6-6-6-6-6-6-6-6--8-8-8-8--3-3-3-3--6-6-6-6--8-8-8-8--6-6-6-6-6-6-6-6-|
E------------------6-6-6-6--------------------6-6-6-6------------------|
Добавлено: 10.08.2015
Вам также может быть интересно:
Другие материалы по этой песне:
  • Аккорды и текст

Страница создана 18.07.2015
http://primanota.ru/gg-allin/sister-sodomy-chords.htm
Привет, Гость.
Предлагаем пройти революционный курс по гитаре.
Подарок от PrimaNota.Ru, забирай!