PrimaNota.ru - самый крупный в мире бесплатный архив песенных текстов, аккордов, табулатур и нот


Gg Allin - Shove That Warant Up Your Ass - бас-таба, видео

Регистрация Запомнить меня
Войти через:  Facebook Google Twitter Vk Yandex Mail.ru

Gg Allin - Shove That Warant Up Your Ass - бас-таба, видео

Печатать
Просмотров: 109
First Verse                                        x2
G----------------------------------------------------|--------------------------------------------|
D----------------------------------------------------|--------------------------------------------|
A--------------------7--5--2/3-3-2/3-3-2/3-3--2---0--|--------------------7--5--2/3-3-2/3-3-2/3-3-|
E-2/3-3-2/3-3-2/3-3----------------------------------|-2/3-3-2/3-3-2/3-3--------------------------|


Chorus                x3
G------------------------|--------------------------|
D------------------------|--------------------------|
A------7-7--3-3--5-5-5-5-|--------------5-5-5-5-5-5-|
E-3-3--------------------|-3--3-3-3-3-3-------------|


Second Verse
G-----------------------------------------------------------------|
D-----------------------------------------------------------------|
A-3-3-3-3-3-3-3-3-----------------3-3-3-3-3-3-3-3-5-5-5-5-5-5-5-5-|
E-----------------3-3-3-3-3-3-3-3---------------------------------|


Order:
First Verse
Chorus
Second Verse
Chorus
First Verse
Chorus 
Second Verse
Chorus
Second Verse (This is the Solo)
Chorus (first bar only) x10
Добавлено: 18.07.2015
Другие материалы по этой песне:
  • Аккорды и текст

Страница создана 18.07.2015
http://primanota.ru/gg-allin/shove-that-warant-up-your-ass-chords.htm
Привет, Гость.
Предлагаем пройти революционный курс по гитаре.
Подарок от PrimaNota.Ru, забирай!