PrimaNota.ru - самый крупный в мире бесплатный архив песенных текстов, аккордов, табулатур и нот


Gamma Ray - Men Martians And Machines - текст песни, таба, бас-таба, видео

Регистрация Запомнить меня
Войти через:  Facebook Google Twitter Vk Yandex Mail.ru

Gamma Ray - Men Martians And Machines - текст песни, таба, бас-таба, видео

Печатать
Просмотров: 153
Авторы музыки: Kai Hansen
Авторы текста: Kai Hansen
      W                   H        E   E  S S S S    H.           S S S S
D#||-------------------|--------------------------|-----------------------|
A#||-------------------|--------------------------|-----------------------|
F#||-------------------|--------------------------|-----------------------|
C#||-------------------|--------------------------|-----------------------|
G#||-------------------|--7--------5s--7--7-----3-|--L------------------7-|
D#||-------------------|--5--------3s--5--5---0-1-|--L------------8-8-7-5-|


  H        E   E  S S S S    H.           S S S S    W
--------------------------|-----------------------|-------------------|
--------------------------|-----------------------|-------------------|
--------------------------|-----------------------|-------------------|
--------------------------|-----------------------|-------------------|
--L--------5s--7--7-----3-|--L------------------7-|--L----------------|
--L--------3s--5--5---0-1-|--L------------8-8-7-5-|--L----------------|


  H.           S S S S    H        E   E  S S S S    H.            S  S S S
-----------------------|--------------------------|-------------------------|
-----------------------|--------------------------|-------------------------|
-----------------------|--------------------------|-------------------------|
-----------------------|--------------------------|---------------10-10-7-9-|
--3------------------7-|--L--------5s--7--7-----3-|--L-------------8--8-5-7-|
--1------------8-8-7-5-|--L--------3s--5--5---0-1-|--L----------------------|


  E  S S S S S S S S S S S S S S    E  S S S S S S S S S S S  S S S
---------------------------------|----------------------------------|
---------------------------------|----------------------------------|
---------------------------------|----------------------------------|
--L------9-------9-------7---7-9-|--L------9-------9------------5---|
--L------7-------7-------5---5-7-|--L------7-------7--------------7-|
-----0-0-----0-0-----0-0---------|-----0-0-----0-0-----0-0-5h-7-----|


  E  S S S S S S S S S S S S S S    E  S S S S S S S S S S  S  S S S
---------------------------------|-----------------------------------|
---------------------------------|-----------------------------------|
---------------------------------|-----------------------------------|
---------9-------9-------7---7-9-|--L------9-------9-------10-10-7-9-|
--L------7-------7-------5---5-7-|--L------7-------7--------8--8-5-7-|
-----0-0-----0-0-----0-0---------|-----0-0-----0-0-----0-0-----------|


  E  S S S S S S S S S S S S S S    E  S S S S S S S S S S  S  S S S
---------------------------------|-----------------------------------|
---------------------------------|-----------------------------------|
---------------------------------|-----------------------------------|
--L------9-------9-------7---7-9-|--L------9-------9-------10-10-9-7-|
--L------7-------7-------5---5-7-|--L------7-------7--------8--8-7-5-|
-----0-0-----0-0-----0-0---------|-----0-0-----0-0-----0-0-----------|


  H        S  S S  S S  S S S    E  S S S S S S S S S S S S S S
------------------------------|---------------------------------|
------------------------------|---------------------------------|
------------------------------|---------------------------------|
--L-------------------------9-|--L------9-------9-------7-7-7-9-|
--L--------5p-0-4p-0-3p-0-0-7-|--L------7-------7-------5-5-5-7-|
------------------------------|-----0-0-----0-0-----0-0---------|


    E  S S S S S S S S S S S S S S    E  S S S S S S S S S S S  S S S
|----------------------------------|----------------------------------|
|----------------------------------|----------------------------------|
|*---------------------------------|----------------------------------|
|*--L------9-------9-------7---7-9-|--L------9-------9------------5---|
|---L------7-------7-------5---5-7-|--L------7-------7-------5h-7---7-|
|------0-0-----0-0-----0-0---------|-----0-0-----0-0-----0-0----------|


  E  S S S S S S S S S S S S S S    E  S S S S S S S S S S  S  S S S
---------------------------------|-----------------------------------|
---------------------------------|-----------------------------------|
---------------------------------|-----------------------------------|
--7------9-------9-------7---7-9-|--L------9-------9-------10-10-7-9-|
---------7-------7-------5---5-7-|--L------7-------7--------8--8-5-7-|
-----0-0-----0-0-----0-0---------|-----0-0-----0-0-----0-0-----------|


  E  S S S S S S S S S S S S S S    E  S S S S S S S S S S S S S S
---------------------------------|---------------------------------|
---------------------------------|---------------------------------|
---------------------------------|---------------------------------|
--L------9-------9-------7---7-9-|--L------9-------9-------9-9-9-7-|
--L------7-------7-------5---5-7-|--L------7-------7-------7-7-7-5-|
-----0-0-----0-0-----0-0---------|-----0-0-----0-0-----0-0---------|


  H        S  S S  S S  S S S    E  S S S S S S S S S S S S S S
------------------------------|---------------------------------|
------------------------------|---------------------------------|
------------------------------|---------------------------------|
--L-------------------------9-|--L------9-------9-------9-9-9---|
--L--------5p-0-4p-0-3p-0-0-7-|--L------7-------7-------7-7-7-7-|
------------------------------|-----0-0-----0-0-----0-0-------5-|


                                     PM PM PM  PMPM
  H        E  E  E  S S    H         E  E  E   S S     H        E  E  E  S S
----------------------|---------------------------|------------------------|
----------------------|---------------------------|------------------------|
----------------------|---------------------------|------------------------|
----------------------|-----------10--9--7--------|----------------------0-|
L-------------------3-|--L---------8--7--5--10-7--|--L-------------------0-|
L--------8--7--5--3-1-|--L-------------------8-5--|--L--------8--7--5--3---|


  W                   Q.     S S Q    E.  S    Q.     S S Q    E.  S
-------------------|------------------------|------------------------|
-------------------|------------------------|------------------------|
-------------------|------------------------|------------------------|
--L----------------|----------------------5-|--L------5--------------|
--L----------------|--7--------3-L----L---3-|--L------3-5-L----L---5-|
-------------------|--5------0-1-L----L-----|-----------3-L----L---3-|


  Q.     S  S Q    E.  S    H        S S S S S E  S    H.           S S S S
-------------------------|--------------------------|-----------------------|
-------------------------|--------------------------|-----------------------|
-------------------------|--------------------------|-----------------------|
---------5s-7-L----L---9-|--L--------9-9-9-9-9-9----|-----------------------|
--3------3s-5-L----L---7-|--L--------7-7-7-7-7-7----|--9------------L---7-5-|
--1----------------------|--------------------------|--7------------L---5-3-|


  H        S S  S S S  S S S    H.           S S S S
-----------------------------|-----------------------|
-----------------------------|-----------------------|
-----------------------------|-----------------------|
-----------------------------|-----------------------|
--L---------------9-7------9-|--L------------9---9-5-|
--L--------7-9-10-----10-9-7-|--L------------7---7-3-|


  H        S S  S S S  S S S      H        S S  S S S  S S S
------------------------------||-----------------------------|
------------------------------||-----------------------------|
-----------------------------*||-----------------------------|
---------------------------9-*||--L------------------------9-|
--L---------------9-7------7--||--L---------------9-7------7-|
--L--------7-9-10-----10-9----||-----------7-9-10-----10-9-0-|

SOLO


-------|-------|-------|-------|-------|--------------------------------|
-------|-------|-------|-------|-------|--------------------------------|
-------|-------|-------|-------|-------|-----------5p-4-------7br--Lh-5-|
-------|-------|-------|-------|-------|--7----L--------7~--------------|
-------|-------|-------|-------|-------|---------7----------------------|
-------|-------|-------|-------|-------|--------------------------------|


-----------------------------|---------------------------------------|
----------------5------------|----------10-12-13-13b--13~--12--13-12-|
--7~----L---7-L----------12b-|---L----L------------------------------|
------------------7--L-------|---------------------------------------|
-----------------------------|---------------------------------------|
-----------------------------|---------------------------------------|


-----------------------|
--L------8-------------|
-----------7-L---------|
-----------------------|
-----------------------|
-----------------------|


----------------------------------------------------------------------------|
------12-12-12-12-12-12-15p-12----12-15p-12----12----12-15p-12----12-15~----|
--14b--------------------------15-----------15----15-----------15-----------|
----------------------------------------------------------------------------|
----------------------------------------------------------------------------|
----------------------------------------------------------------------------|

------------------------------------------------------------------------------|
-15p-14p-12h-14p-12----12----14h-15p-14h-15p-14p-12----12h-15p-12-------------|
--------------------15----12------------------------15------------15-14-12-12-|
------------------------------------------------------------------------------|
------------------------------------------------------------------------------|
------------------------------------------------------------------------------|


------------------------------------------------------------------------------|
------------------------------------------------------------------------------|
------------------------------------------------------------------------------|
-12h-14p-12----12h-14p-12h-14-12----12---12h-14-12-14p-12----12h14p12---------|
-----------14-------------------14-----------------------14------------14p-12-|
------------------------------------------------------------------------------|


-----------------------------------------------------|
------------------------------12----12-14-12--14p-12-|
---------------------12----12-12----12-14-12--14p-12-|
---------------------12----12----14------------------|
------10-12-12g14-14----14---------------------------|
--\12------------------------------------------------|


-------------------------------------|-----------15p-12----12----------------|
--------17br-L---Lh-15-17~----L--L---|--17----12--------15----15-15b---------|
-------------------------------------|---------------------------------------|
--14---------------------------------|---------------------------------------|
-------------------------------------|----------------------------------10\--|
-------------------------------------|---------------------------------------|


15h-19p-15----------15-15h-19p-15----------15-19h22p-19----------19-19h-21p-1-|
------------17----17---------------17----17--------------20----20-------------|
---------------16---------------------16--------------------19----------------|
------------------------------------------------------------------------------|
------------------------------------------------------------------------------|
------------------------------------------------------------------------------|


-----------17-17-17-19-19-19-20-20-20-19-19-19-20-20-20-22-22-19-22br-|
--20-20-20------------------------------------------------------------|
----------------------------------------------------------------------|
----------------------------------------------------------------------|
----------------------------------------------------------------------|
----------------------------------------------------------------------|
Добавлено: 28.06.2012
Другие материалы по этой песне:

Страница создана 29.04.2012
http://primanota.ru/gamma-ray/men-martians-and-machines-chords.htm
Привет, Гость.
Предлагаем пройти революционный курс по гитаре.
Подарок от PrimaNota.Ru, забирай!