PrimaNota.ru - самый крупный в мире бесплатный архив песенных текстов, аккордов, табулатур и нот


Gamma Ray - Pray - текст песни, таба, бас-таба, видео

Регистрация Запомнить меня
Войти через:  Facebook Google Twitter Vk Yandex Mail.ru

Gamma Ray - Pray - текст песни, таба, бас-таба, видео

Печатать
Просмотров: 221
Уроки эстрадного вокала в Санкт-Петербурге
     Pray                                       


                                                                       Gamma Ray
Kai - guitare



      W                Q    Q       W                Q    Q     
D#||-----------------------------|-----------------------------|
A#||-----------------------------|-----------------------------|
F#||-----------------------------|-----------------------------|
C#||-----------------------------|--3--------------------------|
G#||-------------------5----7----|--3----------------5----7----|
D#||-------------------3----5----|--1----------------3----5----|


  W                Q    Q       W                Q    Q     
-----------------------------|-----------------------------|
-----------------------------|-----------------------------|
-----------------------------|-----------------------------|
--3--------------------------|--3--------------------------|
--3----------------5----7----|--3----------------5----7----|
--1----------------3----5----|--1----------------3----5----|


  W                Q    Q       Q    Q    E  S  S E.  S Q    Q     
-----------------------------|------------------------------------|
-----------------------------|---------------6h-8-6---------------|
-----------------------------|------------------------5-5---------|
--7----------------7----7----|--L----3-----------------------7----|
--5----------------5----5----|--L---------------------------------|
-----------------------------|------------------------------------|


  W                   W                   W                   W                 
-------------------|-------------------|-------------------|-------------------|
-------------------|-------------------|-------------------|-------------------|
-------------------|-------------------|-------------------|-------------------|
--5----------------|--L----------------|-------------------|-------------------|
--3----------------|--L----------------|-------------------|-------------------|
-------------------|-------------------|-------------------|-------------------|


  W                   W                   W                   W                 
-------------------|-------------------|-------------------|-------------------|
-------------------|-------------------|-------------------|-------------------|
-------------------|-------------------|-------------------|-------------------|
-------------------|-------------------|-------------------|-------------------|
-------------------|-------------------|-------------------|-------------------|
-------------------|-------------------|-------------------|-------------------|


  H        H           H        H           H        H         
--------------------|--------------------|--------------------|
--------------------|--------------------|--------------------|
--------------------|--------------------|--------------------|
--------------------|--------------------|--------------------|
--7--------5--------|--2--------3--------|--7--------5--------|
--5--------3--------|--0--------1--------|--5--------3--------|


  H        H           H        H           Q.     S S S S S S E  E   
--------------------|--------------------|---------------------------|
--------------------|--------------------|---------------------------|
--------------------|--------------------|---------------------------|
--------------------|--------------------|---------------------------|
--2--------3--------|--5-----------------|-------------------2-3--5--|
--0--------1--------|-----------5--------|--3------3-5-2-3-5---------|


    H        Q.     E     H        Q    E  E     H        Q    Q     
|----------------------|----------------------|---------------------|
|----------------------|----------------------|---------------------|
|*---------------------|----------------------|---------------------|
|*--5--------5---------|----------------------|--5------------------|
|---3--------3------2--|--3--------3----5--2--|--3--------2----2----|
|-------------------0--|--1--------1----3--0--|-----------0----0----|


  Q    E.  S S  E  S S S E     H        Q    E  E     W                 
----------------------------|----------------------|-------------------|
----------------------------|----------------------|-------------------|
----------------------------|----------------------|-------------------|
----------------------------|--5--------5----5--5--|-------------------|
--5----L---5-7p-3--2-0-2-3--|--5--------5----5--5--|-------------------|
----------------------------|--3--------3----3--3--|-------------------|


  W                   W                   W                 
-------------------|-------------------|-------------------|
-------------------|-------------------|-------------------|
-------------------|-------------------|-------------------|
-------------------|-------------------|-------------------|
-------------------|-------------------|-------------------|
-------------------|-------------------|-------------------|


  H        H           H        S S S S S S S S      H        H         
--------------------|----------------------------||--------------------|
--------------------|----------------------------||--------------------|
--------------------|---------------------------*||--------------------|
--------------------|--5------------------2-3-5-*||--5--------5--------|
--5--------7--------|--5------------2-3-5--------||--5--------5--------|
--------------------|--3--------3-5--------------||--3--------3--------|


   Q      S  E   S   Q     S  E.      Q    E  E  Q     S  T   T  T  T  T  T  
-----------------------------------|----------------------------------------|
--13~----13-15--13p-12~----L-12h---|--8----5--8-----------------------10-12-|
-----------------------------------|-------------5~-------------10-12-------|
-----------------------------------|---------------------10h-12-------------|
-----------------------------------|----------------------------------------|
-----------------------------------|----------------------------------------|


   Q      S   E   S  S  S  E  Q      
------------------------------------|
--13~----13h-15--13-12--------------|
-----------------------12-----------|
--------------------------12--L~----|
------------------------------------|
------------------------------------|


   S  S  S  S S   S S S   Q     S  T   T  T   T  S  
---------------------------------------------------|
------------------------------------------------10-|
-----------------------------------------10h-12----|
--12-14-12-10-9h-10-9-5-5g7~------10h-12-----------|
---------------------------------------------------|
---------------------------------------------------|


   E.    S  Q      S   E   T   T  E.   T   T  
---------------------------------------------|
--17br---L-17br----Lh-15--13p-12-10---15h-17-|
---------------------------------------------|
---------------------------------------------|
---------------------------------------------|
---------------------------------------------|


   H          T  T  T  T  T  T  T  T  T  T  T  T  T  T  T  T  
----------------------------------------------------15-17-19-|
--15~--------------------12----12-13-15-14-15-17-18----------|
-------------12-11-12-14----14-------------------------------|
-------------------------------------------------------------|
-------------------------------------------------------------|
-------------------------------------------------------------|


   W                    W                   W                 
--19b----------------|-------------------|-------------------|
---------------------|-------------------|-------------------|
---------------------|-------------------|-------------------|
---------------------|-------------------|-------------------|
---------------------|-------------------|-------------------|
---------------------|-------------------|-------------------|


  W                   W                   W                   W                 
-------------------|-------------------|-------------------|-------------------|
-------------------|-------------------|-------------------|-------------------|
-------------------|-------------------|-------------------|-------------------|
-------------------|-------------------|-------------------|-------------------|
-------------------|-------------------|-------------------|-------------------|
-------------------|-------------------|-------------------|-------------------|


  W                   W                   S S S S S S S S S S S S S S S S  
-------------------|-------------------|----------------------------------|
-------------------|-------------------|----------------------------------|
-------------------|-------------------|------------------------------2-4-|
-------------------|--5----------------|------------------------2-3-5-----|
-------------------|--5----------------|----------2---2-3-5-4-5-----------|
-------------------|--3----------------|--3-2-3-5---5---------------------|


  H        Q.     E     H.           E  E     H        Q    Q     
---------------------|---------------------|---------------------|
---------------------|---------------------|---------------------|
--5--------5---------|---------------------|--5------------------|
--5--------5---------|--3------------------|--5------------------|
--3--------3------2--|--3------------5--2--|--3--------2----2----|
------------------0--|--1------------3--0--|-----------0----0----|


  Q    Q    E  E  E  E     E.  S E.  S H           H        Q.      E   
------------------------|-----------------------|----------------------|
------------------------|-----------------------|----------------------|
------------------------|-----------------------|----------------------|
------------3--2--------|--5---5-5---5-5--------|----------------------|
--5----5----------5--3--|--5---5-5---5-5--------|--5--------5~---------|
------------------------|--3---3-3---3-3--------|-------------------2--|


                                                       |--3--|  |--3--|   
  H.           E  E     H        Q    Q       H        E  E  E  E  E  E   
---------------------|---------------------|-----------------------------|
---------------------|---------------------|-----------------------------|
---------------------|---------------------|-----------------------------|
---------------------|--7------------------|-----------5--4-----------4--|
--5---------------4--|--5------------------|--7--------------7--5--7-----|
--3------------5-----|-----------2----2----|-----------------------------|


  Q    Q       Q    Q    Q    Q       Q    Q    S S S S Q     
------------|----------------------|-------------------------|
------------|----------------------|-------------------------|
------------|------------5---------|------------7-7-7-7-7----|
--2----2----|--5----5---------2----|-------------------------|
--0----0----|--3----3--------------|--5----5-----------------|
------------|----------------------|-------------------------|


  H        H           W                  
--------------------|-------------------||
--------------------|-------------------||
--------------------|-------------------||
--5--------5--------|--5----------------||
--5--------5--------|--5----------------||
--3--------3--------|--3----------------||




Duration Legend
---------------
W - whole
H - half
Q - quarter
E - 8th
S - 16th
T - 32nd
X - 64th
. - note dotted
|-n-|  - n-tuplets


Tablature Legend
----------------
L - tied note
x - dead note
g - grace note
(n) - ghost note
> - accentuded note
NH - natural harmonic
AH - artificial harmonic
TH - tapped harmonic
SH - semi harmonic
PH - pitch harmonic
h - hammer on
p - pull off
b - bend
br - bendRelease
pb - preBend
pbr - preBendRelease
brb - bendReleaseBend
\n/ - tremolo bar dip
\n - tremolo bar dive
-/n - tremolo bar Release up
/n\ - tremolo bar inverted dip
/n - tremolo bar return
-\n - tremolo bar Release down
S - shift slide
s - legato slide
/ -  slide into from below or out of upwards
\ -  slide into from above or out of downwards
~ - vibrato
W - wide vibrato
tr - trill
TP - tremolo picking
T - tapping
S - slap
P - pop
< - fade in
^ - brush up
v - brush down
Добавлено: 25.06.2013
Другие материалы по этой песне:

Страница создана 04.05.2012
http://primanota.ru/gamma-ray/pray-chords.htm
Привет, Гость.
Предлагаем пройти революционный курс по гитаре.
Подарок от PrimaNota.Ru, забирай!