PrimaNota.ru - самый крупный в мире бесплатный архив песенных текстов, аккордов, табулатур и нот


Gamma Ray - Money - текст песни, таба, видео

Регистрация Запомнить меня
Войти через:  Facebook Google Twitter Vk Yandex Mail.ru

Gamma Ray - Money - текст песни, таба, видео

Печатать
Просмотров: 177
Авторы музыки: Kai Hansen
Авторы текста: Kai Hansen
 Money                                       


                                                                       Gamma Ray
Kai - guitare 1



     S  S E  E  S S S S S S E  S S    S  S E  E  S S S E  S Q     
E||--------------------------------|-----------------------------|
B||--------------------------------|-----------------------------|
G||--------------------------------|-----------------------------|
D||--------------------------------|-----------------x-9--x-9----|
A||--------------------------------|-----------------x-7--x-7----|
E||--5h-7-7--7--8-8-5-8-8-5-7--x-x-|--5h-7-7--7--x-x-------------|


  S  S E  E  S S S S S S E  S S    S  S E  E  S S S E  S Q     
--------------------------------|-----------------------------|
--------------------------------|-----------------------------|
--------------------------------|-----------------------------|
--------------------------------|-----------------x-9--x-9----|
--------------------------------|-----------------x-7--x-7----|
--5h-7-7--7--8-8-5-8-8-5-7--x-x-|--5h-7-7--7--x-x-------------|


  S  S E  E  S S S S S S E  S S    S  S E  E  S S S E  S Q     
--------------------------------|-----------------------------|
--------------------------------|-----------------------------|
--------------------------------|-----------------------------|
--------------------------------|-----------------x-9--x-9----|
--------------------------------|-----------------x-7--x-7----|
--5h-7-7--7--x-x-5-7-7-5-7--x-x-|--5h-7-7--7--x-x-------------|


  S  S E  E  S S S S S S E  S S    E  E  E  E  H           H        Q    Q     
--------------------------------|-----------------------|---------------------|
--------------------------------|-----------------------|---------------------|
--------------------------------|-----------------------|---------------------|
--------------------------------|--------7--9--L--------|--L--------9----7----|
--------------------------------|-----9--5--7--L--------|--L--------7----5----|
--5h-7-7--7--x-x-5-7-7-5-7--x-x-|--7--7-----------------|---------------------|


    S S S S S S S S S S S S S S S S    S S S S S S S S S S S S S S S S  
|-----------------------------------|----------------------------------|
|-----------------------------------|----------------------------------|
|*----------------------------------|----------------------------------|
|*----------------------------------|----------------------------------|
|-----------------------------------|------------------7-7-5-5---------|
|---5-5-5-5-5-5-5-5-5-5-5-5-5-5-5-5-|--5-5-7-7-9-9-5-5---------9-9-7-7-|


  S S S S S S S S S S S S S S S S    S S  S  S  S  S S S  S  S  S  S S S  S  S  
----------------------------------|--------------------------------------------|
----------------------------------|--------------------------------------------|
----------------------------------|--------------------------------------------|
----------------------------------|--9-9-11-11-------9-9-----------------------|
----------------------------------|------------12-12-----11-11-12-12-9-9-11-11-|
--0-0-0-0-0-0-0-0-0-0-0-0-0-0-0-0-|--------------------------------------------|


  S S S S S S S S S S S S S S S S    S S S S S S S S S S S S S S S S  
----------------------------------|----------------------------------|
----------------------------------|----------------------------------|
----------------------------------|----------------------------------|
----------------------------------|----------------------------------|
----------------------------------|------------------7-7-5-5---------|
--5-5-5-5-5-5-5-5-5-5-5-5-5-5-5-5-|--5-5-7-7-9-9-5-5---------9-9-7-7-|


  S S S S S S S S S S S S S S S S    S S  S  S  S  S S S  S  S  S  S S S  S  S  
----------------------------------|--------------------------------------------|
----------------------------------|--------------------------------------------|
----------------------------------|--------------------------------------------|
----------------------------------|--9-9-11-11-------9-9-----------------------|
----------------------------------|------------12-12-----11-11-12-12-9-9-11-11-|
--0-0-0-0-0-0-0-0-0-0-0-0-0-0-0-0-|--------------------------------------------|


  S  S E  E  S S S S S S E  S S    S  S E  E  S S S E  S Q     
--------------------------------|-----------------------------|
--------------------------------|-----------------------------|
--------------------------------|-----------------------------|
--------------------------------|-----------------x-9--x-9----|
--------------------------------|-----------------x-7--x-7----|
--5h-7-7--7--x-x-5-7-7-5-7--x-x-|--5h-7-7--7--x-x-------------|


  S  S E  E  S S S S S S E  S S    S  S E  E  S S S E  S Q       
--------------------------------|------------------------------||
--------------------------------|------------------------------||
--------------------------------|-----------------------------*||
--------------------------------|-----------------x-9--x-9----*||
--------------------------------|-----------------x-7--x-7-----||
--5h-7-7--7--x-x-5-7-7-5-7--x-x-|--5h-7-7--7--x-x--------------||


  S S S S S S S S S S S S S S S S    S S S S S S S S S S S S S S S S  
----------------------------------|----------------------------------|
----------------------------------|----------------------------------|
----------------------------------|----------------------------------|
----------------------------------|----------------------------------|
------4-4-5-5-4-4-2-2-------------|------4-4-5-5-4-4-2-2-------------|
--2-2-----------------5-5-4-4-5-5-|--2-2-----------------5-5-4-4-5-5-|


  S S S S S S S S S S S S S S S S    W                 
----------------------------------|-------------------|
----------------------------------|-------------------|
----------------------------------|-------------------|
----------------------------------|-------------------|
------7-7-9-9-7-7-5-5-------------|--7----------------|
--5-5-----------------9-9-7-7-5-5-|-------------------|


  S S S S S S S S S S S S S S S S    S S S S S S S S S S S S S S S S  
----------------------------------|----------------------------------|
----------------------------------|----------------------------------|
----------------------------------|----------------------------------|
----------------------------------|----------------------------------|
------2-2-4-4-2-2-----------------|------2-2-4-4-2-2-----------------|
--0-0-------------5-5-4-4-2-2-4-4-|--0-0-------------5-5-4-4-2-2-4-4-|


  S S S S Q     S S S S Q        S S S S Q     S S S S Q      
------------------------------|------------------------------|
------------------------------|------------------------------|
------------------------------|------------------------------|
------------------------------|------------------------------|
----------7~------------------|----------7~------------------|
--0-0-0-0-------0-0-0-0-7~----|--0-0-0-0-------0-0-0-0-7~----|


  E  E   E  E  E   E  E  E     E   E  E  E   Q.      E      W                 
----------------------------|----------------------------|-------------------|
----------------------------|----------------------------|-------------------|
----------------------------|---------8-----11~------L\--|-------------------|
----------------------7--9--|--9--11-----9---------------|-------------------|
------------7--9--11--------|----------------------------|--2----------------|
--7--9--11------------------|----------------------------|--0----------------|


  H        Q    E  E     H        Q    E  S S    H        Q    E  S S  
----------------------|-----------------------|-----------------------|
----------------------|-----------------------|-----------------------|
----------------------|-----------------------|-----------------------|
----------------------|-----------------------|-----------------------|
--2--------L----L-----|--7--------L----L--9-9-|--9--------L----L--2-2-|
--0--------L----L--x--|--5--------L----L--7-7-|--7--------L----L--0-0-|


  H        Q    E  S S    H        Q    E  S S    H        Q    E  S S  
-----------------------|-----------------------|-----------------------|
-----------------------|-----------------------|-----------------------|
-----------------------|-----------------------|-----------------------|
-----------------------|-----------------------|-----------------------|
--2--------L----L--7-7-|--7--------L----L--9-9-|--9--------L----L--2-2-|
--0--------L----L--5-5-|--5--------L----L--7-7-|--7--------L----L--0-0-|


  H        E  E   Q        S  S E  E  S S S S S S E  S S  
------------------------|--------------------------------|
------------------------|--------------------------------|
------------------------|--------------------------------|
------------------------|--------------------------------|
--2--------2------------|--------------------------------|
--0--------0-----12\----|--5h-7-7--7--x-x-5-x-x-5-7--x-x-|


  S  S E  E  S S S E  S Q       S  S E  E  S S S S S S E  S S  
-----------------------------|--------------------------------|
-----------------------------|--------------------------------|
-----------------------------|--------------------------------|
-----------------x-9--x-9----|--------------------------------|
-----------------x-7--x-7----|--------------------------------|
--5h-7-7--7--x-x-------------|--5h-7-7--7--x-x-5-x-x-5-7--x-x-|


  S  S E  E  S S S E  S Q       S  S S S E  S S S  S S S S S S S  
-----------------------------|-----------------------------------|
-----------------------------|-----------------------------------|
-----------------------------|-----------------------------------|
-----------------x-9--x-9----|-----------------------------------|
-----------------x-7--x-7----|-----------5---------------7-8-7-5-|
--5h-7-7--7--x-x-------------|--5h-7-7-7----7-7-5h-7-7-----------|


  S  S S S S S S S S S S S S S S S    S  S S S E  S S S  S S S S S S S  
-----------------------------------|-----------------------------------|
-----------------------------------|-----------------------------------|
-----------------------------------|-----------------------------------|
-----------------------------------|-----------------------------------|
-----------5-5-----7-8-7-5-7-5-----|-----------5-------------5-7-5-----|
--5h-7-7-7-----7---------------7-5-|--5h-7-7-7----7-7-5h-7-7-------7-5-|


  S  S S S E  S S S S S S S S S S      S  S S S E  S S S  S S S S  S S S  
----------------------------------||-------------------------------------|
----------------------------------||-------------------------------------|
----------------------------------||*------------------------------------|
----------------------------------||*------------------------------------|
-----------5----5-7-8-7-5-7-5-----||------------7-------------7-9-10-9-7-|
--5h-7-7-7----7---------------7-5-||---7h-9-9-9----9-9-7h-9-9------------|


  S  S S S E  S S S  S S S S S S S       W                   W                 
------------------------------------||--------------------|-------------------|
------------------------------------||--------------------|-------------------|
-----------------------------------*||*-------------------|-------------------|
-----------------------------------*||*-------------------|-------------------|
-----------7----7-9-10-9-7-9-7------||---7----------------|--9----------------|
--7h-9-9-9----9----------------9-7--||---5----------------|--7----------------|


  W                   W                     W                 
-------------------|--------------------||-------------------|
-------------------|--------------------||-------------------|
-------------------|-------------------*||-------------------|
-------------------|-------------------*||-------------------|
--4----------------|--------------------||--4----------------|
--2----------------|--------------------||--2----------------|


  W                   W                   W                   W                 
-------------------|-------------------|-------------------|-------------------|
-------------------|-------------------|-------------------|-------------------|
-------------------|-------------------|-------------------|-------------------|
-------------------|-------------------|-------------------|--7----------------|
--4----------------|--7----------------|--9----------------|--5----------------|
--2----------------|--5----------------|--7----------------|-------------------|


  W                   E.  S E  E  S E.   E  E     E.  S E  E  S E.  E  E   
-------------------|---------------------------|--------------------------|
-------------------|---------------------------|--------------------------|
-------------------|---------------------------|--------------------------|
--9----------------|--9---8-L--7--L-6----------|--------------------------|
--7----------------|--7---6-L--5--L-4---10--9--|--8---7-L--6--L-5---4--3--|
--0----------------|---------------------8--7--|--6---5-L--4--L-3---2--1--|


  W                   W                   W                   W                 
-------------------|-------------------|-------------------|-------------------|
-------------------|-------------------|-------------------|-------------------|
-------------------|-------------------|-------------------|-------------------|
-------------------|-------------------|-------------------|-------------------|
--2----------------|--L----------------|--L----------------|--L----------------|
--0----------------|--L----------------|--L----------------|--L----------------|


    H        Q    E  S S    W                   H        Q    E  S S  
|------------------------|-------------------|-----------------------|
|------------------------|-------------------|-----------------------|
|*-----------------------|-------------------|-------------------8-8-|
|*-----------------------|-------------------|-------------------8-8-|
|--------------------4-4-|--L----------------|--6--------L----L------|
|---2--------L----L------|-------------------|-----------------------|


  W                     W                   W                 
--------------------||-------------------|-------------------|
--------------------||-------------------|-------------------|
--8----------------*||--8----------------|-------------------|
--8----------------*||--8----------------|-------------------|
--------------------||-------------------|-------------------|
--------------------||-------------------|-------------------|


  W                   W                   W                   W                 
-------------------|-------------------|-------------------|-------------------|
-------------------|-------------------|-------------------|-------------------|
-------------------|-------------------|-------------------|-------------------|
-------------------|-------------------|-------------------|-------------------|
-------------------|-------------------|-------------------|-------------------|
-------------------|-------------------|-------------------|-------------------|


  W                   W                   W                   W                 
-------------------|-------------------|-------------------|-------------------|
-------------------|-------------------|-------------------|-------------------|
-------------------|-------------------|-------------------|-------------------|
-------------------|-------------------|-------------------|-------------------|
-------------------|-------------------|-------------------|-------------------|
-------------------|-------------------|-------------------|-------------------|


  W                   W                   W                 
-------------------|-------------------|-------------------|
-------------------|-------------------|-------------------|
-------------------|-------------------|-------------------|
-------------------|-------------------|-------------------|
-------------------|-------------------|-------------------|
-------------------|-------------------|-------------------|


  Q    Q    H           W                   S S S S Q     S S S S Q      
---------------------|-------------------|------------------------------|
---------------------|-------------------|------------------------------|
---------------------|-------------------|------------------------------|
---------------------|-------------------|------------------------------|
--2------------------|-------------------|----------7~------------------|
--0------------------|-------------------|--0-0-0-0-------0-0-0-0-7~----|


  S S S S Q     S S S S Q        E  E   E  E  E   E  E  E   
------------------------------|----------------------------|
------------------------------|----------------------------|
------------------------------|----------------------------|
------------------------------|----------------------7--9--|
----------7~------------------|------------7--9--11--------|
--0-0-0-0-------0-0-0-0-7~----|--7--9--11------------------|


  E   E  E  E   Q.      E      W                   H        Q    E  E   
----------------------------|-------------------|----------------------|
----------------------------|-------------------|----------------------|
---------8-----11~------L\--|-------------------|----------------------|
--9--11-----9---------------|-------------------|----------------------|
----------------------------|--2----------------|--2--------L----L-----|
----------------------------|--0----------------|--0--------L----L--x--|


  H        Q    E  S S    H        Q    E  S S    H        Q    E  S S  
-----------------------|-----------------------|-----------------------|
-----------------------|-----------------------|-----------------------|
-----------------------|-----------------------|-----------------------|
-----------------------|-----------------------|-----------------------|
--7--------L----L--9-9-|--9--------L----L--2-2-|--2--------L----L--7-7-|
--5--------L----L--7-7-|--7--------L----L--0-0-|--0--------L----L--5-5-|


  H        Q    E  S S    H        Q    E  S S    H        E  E   Q      
-----------------------|-----------------------|------------------------|
-----------------------|-----------------------|------------------------|
-----------------------|-----------------------|------------------------|
-----------------------|-----------------------|------------------------|
--7--------L----L--9-9-|--9--------L----L--2-2-|--2--------2------------|
--5--------L----L--7-7-|--7--------L----L--0-0-|--0--------0-----12\----|


  S  S E  E  S S S S S S E  S S    S  S E  E  S S S E  S Q     
--------------------------------|-----------------------------|
--------------------------------|-----------------------------|
--------------------------------|-----------------------------|
--------------------------------|-----------------x-9--x-9----|
--------------------------------|-----------------x-7--x-7----|
--5h-7-7--7--x-x-5-x-x-5-7--x-x-|--5h-7-7--7--x-x-------------|


  S  S E  E  S S S S S S E  S S    S  S E  E  S S S E  S Q     
--------------------------------|-----------------------------|
--------------------------------|-----------------------------|
--------------------------------|-----------------------------|
--------------------------------|-----------------x-9--x-9----|
--------------------------------|-----------------x-7--x-7----|
--5h-7-7--7--x-x-5-x-x-5-7--x-x-|--5h-7-7--7--x-x-------------|


    S  S E  E  S S S S S S E  S S    S  S E  E  S S S S S S  Q     
|---------------------------------|-------------------------------|
|---------------------------------|-------------------------------|
|*--------------------------------|-------------------------------|
|*--------------------------------|-----------------------9~-L----|
|---------------------------------|-----------------------7--L----|
|---5h-7-7--7--x-x-5-x-x-5-7--x-x-|--5h-7-7--7--x-x-x-x-x---------|


  S  S E  E  S S S S S S E  S S    S  S E  E  S S S S S S  Q       
--------------------------------|--------------------------------||
--------------------------------|--------------------------------||
--------------------------------|-------------------------------*||
--------------------------------|-----------------------9~-L----*||
--------------------------------|-----------------------7~-L-----||
--5h-7-7--7--x-x-5-x-x-5-7--x-x-|--5h-7-7--7--x-x-x-x-x----------||


  S  S E  E  S S S S S S  Q       E  E  E  E  E  E  E  E   
-------------------------------|--------------------------|
-------------------------------|--------------------------|
-------------------------------|--------------------------|
-----------------------9~-L----|-----9--9-----7--7-----9--|
-----------------------7~-L----|-----7--7-----5--5-----7--|
--5h-7-7--7--x-x-x-x-x---------|--------------------------|


  E  E  E  E  E  E  E  E     E  E  E  S  S S S S S Q               
--------------------------|------------------------------|-------||
--------------------------|------------------------------|-------||
--------------------------|------------------------------|-------||
--9-----7--7-----9--9-----|--7--7------------------------|-------||
--7-----5--5-----7--7-----|--5--5------------------------|-------||
--------------------------|-----------5h-7-7-7-7-5-7\----|-------||




Duration Legend
---------------
W - whole
H - half
Q - quarter
E - 8th
S - 16th
T - 32nd
X - 64th
. - note dotted
|-n-|  - n-tuplets


Tablature Legend
----------------
L - tied note
x - dead note
g - grace note
(n) - ghost note
> - accentuded note
NH - natural harmonic
AH - artificial harmonic
TH - tapped harmonic
SH - semi harmonic
PH - pitch harmonic
h - hammer on
p - pull off
b - bend
br - bendRelease
pb - preBend
pbr - preBendRelease
brb - bendReleaseBend
\n/ - tremolo bar dip
\n - tremolo bar dive
-/n - tremolo bar Release up
/n\ - tremolo bar inverted dip
/n - tremolo bar return
-\n - tremolo bar Release down
S - shift slide
s - legato slide
/ -  slide into from below or out of upwards
\ -  slide into from above or out of downwards
~ - vibrato
W - wide vibrato
tr - trill
TP - tremolo picking
T - tapping
S - slap
P - pop
< - fade in
^ - brush up
v - brush down
Добавлено: 02.10.2013
Другие материалы по этой песне:

Страница создана 28.04.2012
http://primanota.ru/gamma-ray/money-chords.htm
Привет, Гость.
Предлагаем пройти революционный курс по гитаре.
Подарок от PrimaNota.Ru, забирай!