PrimaNota.ru - самый крупный в мире бесплатный архив песенных текстов, аккордов, табулатур и нот


Gallows - Staring At The Rude Boys - таба, видео

Регистрация Запомнить меня
Войти через:  Facebook Google Twitter Vk Yandex Mail.ru

Gallows - Staring At The Rude Boys - таба, видео

Печатать
Просмотров: 144
This is the hidden track after 'Nervous Breakdown' on the double CD they released, I 
it's going to be a single as well

I'm not too sure about some parts of it, so if anyone has any suggestions post a comment 
something

Tuning Drop D

Intro/Verse (palm muted):

E|---------------------------------|
B|-4-4-4-4-4-4-4-4-1-1-1-1-1-1-1-1-|
G|-5-5-5-5-5-5-5-5-2-2-2-2-2-2-2-2-|
D|---------------------------------|
A|---------------------------------|
D|---------------------------------|

Pre-Chorus:

E|-----------------|
B|-----------------|
G|-----------------|
D|-0-0-2-2-3-3-3-3-|
A|-0-0-2-2-3-3-3-3-|
D|-0-0-2-2-3-3-3-3-|

Chorus:

E|-----------------|
B|-----------------|
G|-----7-7-5-5-4-0-|
D|-5~--------------| x2
A|-5~--------------|
D|-5~--------------|

E|---------------------------------|
B|---------------------------------|
G|---------------------------------|
D|-3-0-3-0-3-0-0-3-0-0-3-0-3-0-3-0-| x2
A|-3-0-3-0-3-0-0-3-0-0-3-0-3-0-3-0-|
D|-3-0-3-0-3-0-0-3-0-0-3-0-3-0-3-0-|
PM * * * * * * * * * * * * * * * *

E|-----------------|
B|-----------------|
G|-----7-7-5-5-4-0-|
D|-5~--------------| x2
A|-5~--------------|
D|-5~--------------|

E|-------------|
B|-------------|
G|-5~----------|
D|-5~-3~-3~-3~-|
A|-3~-3~-3~-3~-|
D|----3~-3~-3~-|

Solo (pretty unsure about this bit):

E|-------|
B|-------|
G|-----7~|
D|-8-8---| repeat necessary number of times
A|-------|
D|-------|

Outro (just play this chord however many times needed):

E|---|
B|---|
G|---|
D|-3-|
A|-3-|
D|-3-|
Добавлено: 15.03.2012
Другие материалы по этой песне:

Страница создана 15.03.2012
http://primanota.ru/gallows/staring-at-the-rude-boys-chords.htm
Привет, Гость.
Предлагаем пройти революционный курс по гитаре.
Подарок от PrimaNota.Ru, забирай!