PrimaNota.ru - самый крупный в мире бесплатный архив песенных текстов, аккордов, табулатур и нот


Gallows - Staring At The Rude Boy - таба, видео

Регистрация Запомнить меня
Войти через:  Facebook Google Twitter Vk Yandex Mail.ru

Gallows - Staring At The Rude Boy - таба, видео

Печатать
Просмотров: 104
----------------------------------------------------------------------------
                             Staring At The Rude Boys - Band Name
----------------------------------------------------------------------------
Tabbed by:AndI


Tuning: Drop D

Intro/Verse

E|-----------------------------------|
B|-6-6-6-6-6-6-6-6-1-1-1-1-1-1-1-1---|
G|-7-7-7-7-7-7-7-7-2-2-2-2-2-2-2-2---|
D|-----------------------------------|       x8
A|-----------------------------------|
E|-----------------------------------|
   . . . . . . . . . . . . . . . . 

Pre-Chorus:

E|-------------------|
B|-------------------|
G|-------------------|
D|-0-0-2-2-3-3-3-3---| x4
A|-0-0-2-2-3-3-3-3---|
E|-0-0-2-2-3-3-3-3---|

Chorus:

E|-------------------|
B|-------------------|
G|------7-7-5-5-4-0--|
D|-5~----------------|    x2
A|-5~----------------|
E|-5~----------------|

E|---------------------------------|
B|---------------------------------|
G|---------------------------------|
D|-3-0-3-0-3-0-0-3-0-0-3-0-3-0-3-0-| x2
A|-3-0-3-0-3-0-0-3-0-0-3-0-3-0-3-0-|
D|-3-0-3-0-3-0-0-3-0-0-3-0-3-0-3-0-|
PM * * * * * * * * * * * * * * * *

E|-----------------|
B|-----------------|
G|-----7-7-5-5-4-0-|
D|-5~--------------| x2
A|-5~--------------|
D|-5~--------------|

E|-------------|
B|-------------|
G|-5~----------|
D|-5~-3~-3~-3~-|
A|-3~-3~-3~-3~-|
D|----3~-3~-3~-|

Solo:

E|-------|         
B|-------|
G|-----8~|
D|-7-5---| x2
A|-------|
D|-------|
                          } Repeat all 4 times
E|-------|
B|-------|
G|-----3~|
D|-5-3---| x2
A|-------|
D|-------|

Outro: 

E|---|
B|---|
G|---|
D|-3-|        x4
A|-3-|
D|-3-|



Intro/Verse
Pre Chorus
Verse
Chorus
Verse
Pre Chorus
Solo
Verse
Chorus
Outro



| /  slide up
| \  slide down
| h  hammer-on
| p  pull-off
| ~  vibrato
| +  harmonic
| x  Mute note
| .  Palm mute
===============================================================================
Добавлено: 13.04.2012
Другие материалы по этой песне:
  • Аккорды и текст

Страница создана 13.04.2012
http://primanota.ru/gallows/staring-at-the-rude-boy-chords.htm
Привет, Гость.
Предлагаем пройти революционный курс по гитаре.
Подарок от PrimaNota.Ru, забирай!