PrimaNota.ru - самый крупный в мире бесплатный архив песенных текстов, аккордов, табулатур и нот


Gallows - Leechees - бас-таба, видео

Регистрация Запомнить меня
Войти через:  Facebook Google Twitter Vk Yandex Mail.ru

Gallows - Leechees - бас-таба, видео

Печатать
Просмотров: 142
Gallows - Leechees

Tabbed by gab|503

Drop D tuning (DADG)

Intro/Verse

G|---------------------------------------------------------------| x4
D|---------------------------------------------------------------|
A|--5--------------------------------------------------------6---|
D|-----0-0-0-0-0-0-0-7-7-7-7-6-6-6-5--8-8-8-8-8-8-5--8-8-8-8-----|


Pre-chorus

G-------------------------------------------------------------------|
D-----0-5-0-3-0-2-0-7-0-5-0-2-3-2-----------------------------------|
A--5------------------------------3--3-3-3-3-3-3-1--1-1-1-1-1-1-6---|
D-------------------------------------------------------------------|

G-------------------------------------------------------------------|
D-----0-5-0-3-0-2-0-7-0-5-0-2-3-2-----------------------------------|
A--5------------------------------3--3-3-3-3-3-3-1--1-1-1-1-1-1-0---|
D-------------------------------------------------------------------|


Chorus

G|---------------------------------------------------------------|
D|---------------------------------------------------------------|
A|---------------------------------------------------------------|
D|--3--3-3-3-3-3-3-3-3-3-3-3-3-3-3-5--5-5-5-5-5-5-5-5-5-5-5-5-5--|

 |------------------------------------------| x2
 |------------------------------------------|
 |------------------------------------------|
 |--0-0--0----0-0--0----0-0--0----0-0--0----|


- Verse

- Pre-chorus

- Chorus


Bridge

G|-----------------------------------------------------------------|
D|-----------------------------------------------------------------|
A|-----------------------------------------------------------------|
D|--5--5-5-5-5-5-5-5-5-5-5-5-5-5-5-7--7-7-7-7-7-7-7-7-7-7-7-7-7-7--|

 |--------------------------------------------------------------------------------| x4
 |--------------------------------------------------------------------------------|
 |--------------------------------------------------------------------------------|
 |--8--8-8-8-8-8-8-8-8-8-8-8-8-8-8-10--10-10-10-10-10-10-10-10-10-10-10-10-10-10--|


G|------------------------------------------------------| x4
D|------------------------------------------------------|
A|------3-5-3--0--3--0--3-5-------3-5-3--0--3--0--3-----|
D|-0--0----------------------0--0-------------------3---|

then repeat the first part of the Bridge


- Verse x6


Outro

G|-------------------------|
D|-------------------------|
A|--5---------5------------|
D|------0---------0--------|


Добавлено: 11.05.2012
Другие материалы по этой песне:
  • Аккорды и текст

Страница создана 11.05.2012
http://primanota.ru/gallows/leechees-chords.htm
Привет, Гость.
Предлагаем пройти революционный курс по гитаре.
Подарок от PrimaNota.Ru, забирай!