PrimaNota.ru - самый крупный в мире бесплатный архив песенных текстов, аккордов, табулатур и нот


Fugazi - Fell Destroyed - текст песни, таба, видео

Регистрация Запомнить меня
Войти через:  Facebook Google Twitter Vk Yandex Mail.ru

Fugazi - Fell Destroyed - текст песни, таба, видео

Печатать
Просмотров: 69
Авторы: Winston Riley, Joe Lally, Brendan Canty, Clive Bright, Ian MacKaye, Guy Picciotto

Artist: Fugazi
Song: "Fell, Destroyed"
Album: Red Medicine (1995)

Standard Tuning


Intro

Guitars L & R (Ian MacKaye and Guy Picciotto)

e|--------------------------------||
B|--------------------------------||
G|--------------------------------|| x3
D|--------------------------------||
A|-2-2-2-2-2-2-2-2----------------||
E|-----------------0-0-0-0-0-0-0-0||
+
e|--------------------------------|
B|----------------(0)-------------|
G|----------------(1)-------------|
D|-----------------2--------------|
A|-2-2-2-2-2-2-2-2-2--------------|
E|-----------------0--------------|
                  *muted/staccato*

Verse

Guitar R (Guy Picciotto)
at 0:20
e|--------------------------------||
B|---1----------------------------||
G|-3---3-1---1---------------1---1|| x4
D|---------3---3-1---1---1-3---3--||
A|-----------------3---3----------||
E|--------------------------------||
+
e|--------------------------------|
B|-----------------3-3-3-3-3-3-3-3|
G|-1-1-1-1-1-1-1-1-1-1-1-1-1-1-1-1|
D|-2-2-2-2-2-2-2-2-2-2-2-2-2-2-2-2|
A|--------------------------------|
E|--------------------------------|

Guitar L (Ian MacKaye)

e|--------------------------------||
B|--------------------------------||
G|-----1-----1---------0----------|| x4
D|---3---3-2---2-1-1-1---1*-------||
A|--------------------------------||
E|--------------------------------||
+                         * = rest/pause
e|--------------------------------|
B|--------------------------------|
G|--------------------------------|
D|--------------------------------|
A|-2-2-2-2-2-2-2-2----------------|
E|-----------------0-0-0-0-0-0-0-0|


Chorus

Guy
   A#7                       B7
e|--------------------------------|
B|--------------------------------|
G|--------------------------------|
D|-6-6-6-66666---6-6-6-6-66667-7-7|
A|-5-5-5-55555---5-5-5-5-55556-6-6|
E|-6-6-6-66666---6-6-6-6-66667-7-7|
+  A#7                       G7
e|--------------------------------||
B|--------------------------------||
G|--------------------------------|| x4 (entire figure)
D|-6-6-6-66666---6-6-6-6-66663-3-3||
A|-5-5-5-55555---5-5-5-5-55552-2-2||
E|-6-6-6-66666---6-6-6-6-66663-3-3||

Ian
*This guitar part is played best on a Gibson SG (Ian's guitar)
 or any guitar that has the 3x3 tuning peg arrangement
 (as opposed to the Fender-style 6 tuning pegs on the same side).
 You play this part by alternately strumming the bottom 3 and top
 3 strings (in groups/pairs) on the headstock, above/behind the
 nut and fretboard.  That's how Ian MacKaye produces that
 "ping-ping PONG, picka-ping PONG" sound during the chorus.
 To tab this experimental technique, I'll use an exclamation mark
 (!) to notate the rhythm of this guitar figure, see below:

e|-----!-------!-!!----!-------!-!||
B|-----!-------!-!!----!-------!-!||
G|-----!-------!-!!----!-------!-!|| x8
D|-!-!---!!!!!-----!-!---!!!!!----||
A|-!-!---!!!!!-----!-!---!!!!!----||
E|-!-!---!!!!!-----!-!---!!!!!----||


Post Chorus break

Guy and Ian

e|-----------------0*-------------|
B|-----------------0*-------------|
G|-----------------1*-------------|
D|-----------------2*-------------|
A|-2~--------------2*-------------|
E|-----------------0*-------------|
                    * = rest/staccato pause


Second half of second verse breakdown

Guy

e|--------------------------------||
B|--------------------------------||
G|---------------------------1----|| x4
D|-------------------------3---3--||
A|--------------------------------||
E|--------------------------------||

Ian

e|--------------------------------||
B|--------------------------------||
G|-----1-----1---------0----------|| x4
D|---3---3-2---2-1-1-1---1*-------||
A|--------------------------------||
E|--------------------------------||


Song ends with Chorus and Post Chorus Break.

That's it.
Please feel free to leave comments, corrections, and questions.
Cheers!
-Bennyshambles78-
Добавлено: 15.07.2013
Другие материалы по этой песне:

Страница создана 03.03.2012
http://primanota.ru/fugazi/fell-destroyed-chords.htm
Привет, Гость.
Предлагаем пройти революционный курс по гитаре.
Подарок от PrimaNota.Ru, забирай!