PrimaNota.ru - самый крупный в мире бесплатный архив песенных текстов, аккордов, табулатур и нот


Fugazi - Link Track - таба, бас-таба, видео

Регистрация Запомнить меня
Войти через:  Facebook Google Twitter Vk Yandex Mail.ru

Fugazi - Link Track - таба, бас-таба, видео

Печатать
Просмотров: 154
Уроки эстрадного вокала в Санкт-Петербурге
-----------------------------------------------------------------------------
                             Link Track - Fugazi
-----------------------------------------------------------------------------
Tabbed by:JacoB
Email:jacobsideas@gmail.com

Tuning:standard

this is the order of being played

e|------------------------|------------------------|
B|------------------------|------------------------|
G|------------------------|----------------0------2|
D|-----------------0-h2---|---------2--------------|
A|-----------------------2|--0---------------------|
E|------------------------|------------------------|


e|------------------------|------------------------|
B|------------------------|------------------------|
G|------------------------|------------------------|
D|-----------------0-h2---|------------------------|
A|-----------------------2|--0---------------------|
E|------------------------|------------------------|

e|---------------------|------------------------|
B|---------------------|------------------------|
G|--4------5------4----|--2---------------------|
D|---------------------|------------------------|
A|---------------------|------------------------|
E|---------------------|------------------------|


e|---------------------|------------------------|
B|---------------------|------------------------|
G|--4------5------7----|--9---------------------|
D|---------------------|------------------------|
A|---------------------|------------------------|
E|---------------------|------------------------|




e|---------------------|------------------------|
B|---------------------|------------------------|
G|--7------5------4----|------------------------|
D|---------------------|------------------------|
A|---------------------|------------------------|
E|---------------------|------------------------|


this is my first tab so, there my be alot mistakes.


| /  slide up
| \  slide down
| h  hammer-on
| p  pull-off
| ~  vibrato
| +  harmonic
| x  Mute note
=============================================================================
Добавлено: 24.03.2012
Другие материалы по этой песне:

Страница создана 24.03.2012
http://primanota.ru/fugazi/link-track-chords.htm
Привет, Гость.
Предлагаем пройти революционный курс по гитаре.
Подарок от PrimaNota.Ru, забирай!