PrimaNota.ru - самый крупный в мире бесплатный архив песенных текстов, аккордов, табулатур и нот


Fugazi - Cashout - текст песни, таба, бас-таба, видео

Регистрация Запомнить меня
Войти через:  Facebook Google Twitter Vk Yandex Mail.ru

Fugazi - Cashout - текст песни, таба, бас-таба, видео

Печатать
Просмотров: 199
Авторы: Joe Lally, Brendan Canty, Ian MacKaye, Guy Picciotto

----------------------------------------------------------------------------
                           FUGAZI - CASHOUT
----------------------------------------------------------------------------

tabbed by: Stellar Legs
e-mail: uncle_stellar@hotmail.com

tuning: standard

Great song. There are absolutely no tabs for this, and I assure you, this one is very spot-on.

/=slide
^=bend
~=let ring

a small pick-scrape starts the song.

Intro (distortion)
e--------------------------------------------------|
B--------------------------------------------------|
G--------------------------------------------------|
D----2~----1~----0~--------------------------------|
A--0-----0-----0-----0--4~---0--3~---0--2---1^^^---|
E--------------------------------------------------|

Verse (clean)
e------------------------------------------------------------|
B------------------------------------------------------------|
G------------------------------------------------------------|
D---7-----7---7/9-10---7---------------7------7/9-9---7-5-7--|
A-------------------------7---3-----5-----5------------------|
E------5-----------------------------------------------------|

Verse (cont)
e---------------------------------------------------------------|
B---------------------------------------------------------------|
G---------------------------------------------------------------|
D---7-----7---7/9-10---7---------------7-----7/9-9---7-5-7--2~--|
A-------------------------7---3-----5-----5----------5-3-5--0~--|
E------5--------------------------------------------------------|

The bass plays it's Verse part 2 times, then the guitar starts again at the 3rd time.

Chorus (clean)
e------------------------------------------------------------|
B------------------------------------------------------------|
G------------------------------------------------------------|
D--9-7~---8-7~---9-7~---8-9~---9-10~---10-9~---9-8~---8-7~---|
A------------------------------------------------------------|
E------------------------------------------------------------|

Repeat Verse and Chorus

After 2nd Chorus, a distorted riff comes in:

Riff (distortion)
e---------------------------------------------------|
B---------------------------------------------------|
G-----9---------9-----9---------9-----9---------9---|
D-----7---------7-----7---------7-----7---------7---|
A--0-----0-0-0-----0-----0-0-0-----0-----0-0-0------|
E---------------------------------------------------|
  "Everybody wants....somewhere! Somewhere!"

After that, the Intro riff comes in.

Than there's an alteration on the Chorus riff.

e------------------------------------------------------------------------|
B------------------------------------------------------------------------|
G------------------------------------------------------------------------|
D--9-7~---8-7~---9-7~---8-7~---9-7~---8-7~---9-7~---8-9~---9-10~---10-9~-|
A------------------------------------------------------------------------|
D------------------------------------------------------------------------|

(cont)
e--------|
B--------|
G--------| X 2
D--9-8~--|
A--------|
E--------|

Fun lick right here....
e------------------------------------------------|
B------------------------------------------------|
G------9~-----8~-----7~-----6~-----5~------------|
D---7------7------7------7------7------7--9--8~--|
A------------------------------------------------|
E------------------------------------------------|

Then there's some random distortion and feedback.

Fin.
Добавлено: 28.05.2012
Другие материалы по этой песне:

Страница создана 09.03.2012
http://primanota.ru/fugazi/cashout-chords.htm
Привет, Гость.
Предлагаем пройти революционный курс по гитаре.
Подарок от PrimaNota.Ru, забирай!