PrimaNota.ru - самый крупный в мире бесплатный архив песенных текстов, аккордов, табулатур и нот


Fugazi - Argument - текст песни, таба, видео

Регистрация Запомнить меня
Войти через:  Facebook Google Twitter Vk Yandex Mail.ru

Fugazi - Argument - текст песни, таба, видео

Печатать
Просмотров: 172
Авторы: Joe Lally, Brendan Canty, Ian MacKaye, Guy Picciotto

Artist: Fugazi
Song: The Argument
Album: The Argument

tabbed by mr. bingham ("this is what I make out of the song - listen to it closely 
to get it done your way!")

FUGAZI - The Argument

### INTRO ###
e|-------------------------|--||
h|--------(radio noise)----|--||
g|-------------------------|--||
d|-12-------12-12----------(4x)|
a|-------------------------|--||
e|-------------------------|--||

Part 1: (2x)
Git.
E|--------------------------------------------------------------------------|
h|--------------------------------------------------------------------------|
g|--------------------------------------------------------------------------|
d|-12-12-12-12-12-12-12-12-----------------8-8-8-8-8-8-8-8-7-7-7-7-7-7-7-7--|
A|-------------------------9-9-9-9-9-9-9-9----------------------------------|
e|--------------------------------------------------------------------------|

Bass
g|-------------------------------------------------------------------------||
d|-------------------------------------------------------------------------||
A|-------------------------------------------------------------------------||
e|10-10-10-10-10-10-10-10-2-2-2-2-2-2-2-2-6-6-6-6-6-6-6-6-5-5-5-5-5-5-5-5-5||

Part 2:
E|--------------------------------------------------------------------------|
h|--------------------------------------------------------------------------|
g|--------------------------------------------------------------------------|
d|11-11-11-11-11-11-12-11-14-14-14-14-14-14-14-14--14-14-14-14-14-14-14-14--|
A|--------------------------------------------------------------------------|
e|--------------------------------------------------------------------------|

Bass
g|--------------------------------------------------------------------------|
d|--------------------------------------------------------------------------|
A|--------------------------------------------------------------------------|
e|--5-----5------5--6--7--8--8--8--8--8--8--8--8--8--7--7--7--7--7--8--7--0-|


### VERSE ###
e|-------------------------|--||
h|-------------------------|--||
g|-------------------------|--||
d|-12-------12-12----------(2x)|
a|--9--------9--9----------|--||
e|-------------------------|--||

E|-----------------------------------------------------------------------------------||
h|-----------------------------------------------------------------------------------||
g|-------------------------------------------------------------------------------(2x)||
d|-12-12-12-12-12-12-12-12-0-0-0-0-0-0-0-0--8--8--8--8--8--8--8--8-7-7-7-7-7-7-8-7---||
A|--9--9--9--9--9--9--9--9-9-9-9-9-9-9-9-9-10-10-10-10-10-10-10-10-9-9-9-9-9-9-9-9---||
e|-----------------------------------------------------------------------------------||
   "When they start falling..."

E|-------------------------------------------------------------------------||
h|-------------------------------------------------------------------------||
g|-------------------------------------------------------------------------||
d|11-11-11-11-11-11-12-11-14-14-14-14-14-14-14-14--14-14-14-14-14-14-14-14-||
A|-0--0--0--0--0--0--0--0-12-12-12-12-12-12-12-12--11-11-11-11-11-11-11-11-||
e|----------------------------------------------------------------------12-||
    "How did a difference..."




Lyrics:
When they start falling executions will commence
Sides will not matter now matter makes no sense
How did a difference           become a disease?

I'm sure you have reasons, a rational defense
Weapons and motives, bloody fingerprints
But I can't help thinking      it's still a disease


### CHORUS ### 

Git.
E|--------------------------------------------------------||
h|--------------------------------------------------------||
g|--------------------------------------------------------||
d|----12---11--11--9--9--------------------11--14--9------||
A|-----9----9---9--9--11--------------------9--12--7------||
e|--------------------------------------------------------||
  Here comes the argument.. (3x)

Bass:
g|--------------------------------------------------------||
d|--------------------------------------------------------||
A|-----5-----5-----2---2---------------------4--7--2------||       
e|--7-(7)-7-(7)-7--0-0---0--5-6-7------------2--5--0------||

Here comes the argument
Here comes the argument
Here comes the argument
Folderol

It's all about strikes now, so here's what's striking me:
That some punk could argue some moral ABCs
When people are catching what bombers release
Well I'm on a mission to never agree

### BRIDGE ###

Part 1
Git1. [Dm at IX]             Dm(no F)
E|----8--------8----------------0-----0---------||
h|------10--------10--------------3-----3-------||
g|--9-------9---------9-------2-----2-----2-----||
d|----------------------------------------------||    (3x) 
A|----------------------------------------------||
e|----------------------------------------------||

Git2. 
e|-55555555555555555555-------------------------||
h|---------------------777777555555555666666666-||
g|----------------------------------------------||
d|----------------------------------------------||     (3x)
a|----------------------------------------------||
e|----------------------------------------------||

Bass 
g|----------------------------------------------||
d|----------------------------------------------||
a|--5-----------3-------------0--------1--------|| or  a|--5---s/7--------------||   
e|----------------------------------------------||     e|------------5-----6----||



Part 2 (Chord view below)

e|------0------0----------0------0---------3-----3-----6--5--5-s/6------||
h|----3---0------4------3---3------3---------4-----4---7--6--6-s/7------||
g|--4--------3-----3--3--------3------3--3-----3-------6--5--5-s/6------||
d|----------------------------------------------------------------------||
a|----------------------------------------------------------------------||
e|----------------------------------------------------------------------||

Bass: (Not heard yet!)



### „Back to the Song“-Part ###

Noise-Guitar Only:
e|----------------------------||
h|----------------------------||
g|----------------------------||
d|----------------------------||
a|--9---9-9---2---------------||
e|--7---7-7---0---------------||




### LAST CHORUS ###

Chorus: 

Git.1
E|--------------------------------------------------------||
h|--------------------------------------------------------||
g|--------------------------------------------------------||
d|-12--11--11--9--9------------------------11--14--9------||
A|--9---9---9--9--11------------------------9--12--7------||
e|--------------------------------------------------------||
  Here comes the argument.. (3x)

Bass:
g|--------------------------------------------------------||
d|--------------------------------------------------------||
A|-----5-----5-----2---2---------------------4--7--2------||       
e|--7-(7)-7-(7)-7--0-0---0--5-6-7------------2--5--0------||

Git.2 - Lick (with some variations in the originial):
e|-----------------14-12-12p14h12-----------------||
h|-12-12--12p13h12----------------14h12-----------||
g|------------------------------------------------||
d|------------------------------------------------||
a|------------------------------------------------||
e|------------------------------------------------||

Here comes the argument
Here comes the argument
Here comes the argument
Here it comes! 

### END (let's get this song done part) ###

e|----------------------------||
h|----------------------------||
g|----------------------------||
d|----------------------------||
a|--9---9-9---2---------------||
e|--7---7-7---0---------------||

### LYrics ###
When they start falling executions will commence
Sides will not matter now matter makes no sense
How did a difference become a disease?
I'm sure you have reasons, a rational defense
Weapons and motives, bloody fingerprints
But I can't help thinking it's still a disease
Here comes the argument
Here comes the argument
Here comes the argument
Folderol
It's all about strikes now, so here's what's striking me:
That some punk could argue some moral ABCs
When people are catching what bombers release
Well I'm on a mission to never agree
Here comes the argument
Here comes the argument
Here comes the argument
Here it comes! 


###################################################################
Unbelievable that there were no tabs of this song yet, have fun!

THE LAST & BEST SONG from the BEST BAND EVER. 
Fuck Up, Got Amushed, Zipped In! Over and Out!
Добавлено: 13.10.2013
Другие материалы по этой песне:
  • Аккорды и текст

Страница создана 28.03.2012
http://primanota.ru/fugazi/argument-chords.htm
Привет, Гость.
Предлагаем пройти революционный курс по гитаре.
Подарок от PrimaNota.Ru, забирай!