PrimaNota.ru - самый крупный в мире бесплатный архив песенных текстов, аккордов, табулатур и нот


Fugazi - Song Number 1 - аккорды и текст, видео

Регистрация Запомнить меня
Войти через:  Facebook Google Twitter Vk Yandex Mail.ru

Fugazi - Song Number 1 - аккорды и текст, видео

Печатать
Просмотров: 76
Song Number 1
Fugazi
Author/Artist: Fugazi
Title: Song # 1
Album: Repeater + 3 Songs

Standard Tuning

Intro/Verses

------------------------------------------------------------------------
------------------------------------------------------------------------
------------------------------------------------------------------------
---------5--------------------------------------------------------------
-----3p0----------------------------------------------------------------
-----------333322-------------------------------------------------------


Then:

------------------------------------------------------------------------
------------------------------------------------------------------------
--9-9-9/7-7-7-6-6-6/4-4-4-----------------------------------------------
--9-9-9/7-7-7-7-7-7/5-5-5----------------------------------------------
--7-7-7/5-5-5-7-7-7/5-5-5-----------------------------------------------
--------------5-5-5/3-3-3-----------------------------------------------

The Turnaround (back to the 1st riff)

------------------------------------------------------------------------
------------------------------------------------------------------------
--9-9-9-/-7-7-7---------------------------------------------------------
--9-9-9-/-7-7-7---------------------------------------------------------
--7-7-7-/-5-5-5---------------------------------------------------------
------------------------------------------------------------------------

Listen to the song to get rhythm and number of repeats. I'm
probably forgetting something, as I don't have the luxury of
having the cd in my sight right now, but its pretty easy to get
the rest of it from here

Questions, Comments to: scott_houle@hotmail.com
     
Добавлено: 07.11.2013
Вам также может быть интересно:
Другие материалы по этой песне:
  • Аккорды и текст

Страница создана 17.10.2013
http://primanota.ru/fugazi/song-number-1-chords.htm
Привет, Гость.
Предлагаем пройти революционный курс по гитаре.
Подарок от PrimaNota.Ru, забирай!