PrimaNota.ru - самый крупный в мире бесплатный архив песенных текстов, аккордов, табулатур и нот


Foo Fighters - Sonic Highways (album) - таба, видео

Регистрация Запомнить меня
Войти через:  Facebook Google Twitter Vk Yandex Mail.ru

Foo Fighters - Sonic Highways (album) - таба, видео

Печатать
Просмотров: 308
Foo Fighters-Sonic Highways Full Album Tab

special thanks to seanmcaloon, tele.kom

Song list:
1) Something from Nothing
2) Feast and the Famine
3) Congregation
4) What did I do?/God as my Witness
5) Outside
6) In the Clear
7) Subterranean (Tabs coming soon)
8) I am a River


1) Something from Nothing:

Guitar 1 (Dave):  E A D G B E
Guitar 2 (Chris): E A D G B E
Guitar 3 (Pat):   E A D G B E

Intro (Finger style)
(Guitar 1)
    Em
e|---------------------------------------|
B|----0---0---0---0---0---0---0----------|
G|----0---0---0---0---0---0---0----------|
D|---------------------------------------| x2
A|--7---7---7---7------------------------|
E|------------------0---0---0---0--------|


Verse
(Guitar 1)
    Em              Em/Eb           Em/D            Em/Db
e|-------------------------------------------------------------------|
B|----0---0---0---0---0---0---0---0---0---0---0---0---0---0---0---0--|
G|----0---0---0---0---0---0---0---0---0---0---0---0---0---0---0---0--|
D|-------------------------------------------------------------------|
A|--7---7---7---7---6---6---6---6---5---5---5---5---4---4---4---4----|
E|-------------------------------------------------------------------|
"Give me the flammable..."

    Em/C    Em      Em/A
e|-----------------------------------|
B|----0---0---0---0---0---0---0---0--|
G|----0---0---0---0---0---0---0---0--|
D|-----------------------------------| (x2 first time only)
A|--3---3---7---7---0---0---0---0----|
E|-----------------------------------|

(0:26)
(Guitar 2) Slide
e|---------------------------------------------------------------------------|
B|---------------------------------------------------------------------------|
G|--9~---/12\--8~---/12\--7~---/12\--6~----5----/9--/12~---------------------|
D|---------------------------------------------------------------------------|
A|---------------------------------------------------------------------------|
E|---------------------------------------------------------------------------|
"Here lies a city on fire..."

(Guitar 3) (0:26)
e|----------------------------------|
B|------8-------8-------8-------8---|
G|----9---9---9---9---9---9---9---9-|
D|--9-------9-------9-------9-------| x4 first time through verse
A|----------------------------------| x2 second time through verse
E|----------------------------------|

(Guitar 1 & 3)                                      C   Em  A
e|---------------------------------------------------------------------------|
B|--------------------------------------------------5---8--------------------|
G|--------------------------------------------------5---9---6----------------|
D|--------------------------------------------------5---9---7~---------------|
A|-----------5--4~--0~--------------5--4~--0~-------3---7---7~---------------|
E|--0--2--3----------------0--2--3--------------------------5~---------------|

(Guitar 2)
e|---------------------------------------------------------------------------|
B|---------------------------------------------------------------------------|
G|--4-/6-/7-/12\9~---------4-/6-/7-/12\9~--------------/12\-6~----(/9)-------|
D|---------------------------------------------------------------------------|
A|---------------------------------------------------------------------------|
E|---------------------------------------------------------------------------|

Repeat Verse

Pre-chorus
(Guitar 1 & 3)
                    Em F# G        
e|------------------------------------|
B|------------------------------------|
G|------------------------------------| 
D|-0h2-X-X-0h2-X-X--2--4--5-----------|  x8
A|-0h2-X-X-0h2-X-X--2--4--5-----------|
E|-0---X-X-0---X-X--0--2--3-----------|

(Guitar 2)
                    Em F# G        
e|------------------------------------|
B|------------------------------------|
G|------------------------------------| 
D|--7h9-X-X-7h9-X-X-9--11-12--X-X-----|  x16
A|--7---X-X-7---X-X-7--9--10--X-X-----|
E|------------------------------------|

Bridge
(Guitar 1 & 3)
    C   Em  A      C   Em  A      C   Em  A
e|---------------------------------------------------------------|
B|--5---8----------5---8----------5---8--------------------------|
G|--5---9---6------5---9---6------5---9---6-6-6-6-6-6-6-6--------|
D|--5---9---7------5---9---7------5---9---7-7-7-7-7-7-7-7--------|
A|--3---7---7------3---7---7------3---7---7-7-7-7-7-7-7-7--------|
E|----------5--------------5--------------5-5-5-5-5-5-5-5--------|
                                          "Here I go..."
(Guitar 2)
e|---------------------------------|    |--------------|
B|---------------------------------|    |--------------|
G|---------------------------------|    |--------------|
D|------------5~--7b-7-5-----7~----| x2 |--2~--5~-7~---|
A|--\3~-3-5/7------------7-5-------|    |--------------|
E|---------------------------------|    |--------------|

Pre-Chorus (starring Stevie Wonder on keyboard??)
(Guitar 1 & 3)
                    Em F# G        
e|------------------------------------|
B|------------------------------------|
G|------------------------------------| 
D|-0h2-X-X-0h2-X-X--2--4--5-----------|  x8
A|-0h2-X-X-0h2-X-X--2--4--5-----------|
E|-0---X-X-0---X-X--0--2--3-----------|

(Guitar 2)
e|-----|            e|------0--0--0--0-------------------0--0--0--0----9--9--9--9-------------------|
B|-----|            B|------11-11-11-11----8--8--8--8----11-11-11-11---8--8--8--8-------------------|
G|-----|            G|------9--9--9--9-----6--6--6--6----9--9--9--9----9--9--9--9-------------------|
D|-----| x2 then:   D|--0/--11-11-11-11----8--8--8--8----11-11-11-11----------------------------11~-|
A|-----|            A|-------------------------------------------------------------7-7-9-7-9/10-----|
E|-----|            E|------------------------------------------------------------------------------|

(Guitar 1)
                    Em F# G        
e|------------------------------------|
B|------------------------------------|
G|------------------------------------| 
D|-0h2-X-X-0h2-X-X--2--4--5-----------|  x16
A|-0h2-X-X-0h2-X-X--2--4--5-----------|
E|-0---X-X-0---X-X--0--2--3-----------|
"Oh sweet ignition be my fuse..."

(Guitar 2)
                    Em F# G        
e|------------------------------------|
B|------------------------------------|
G|------------------------------------| 
D|--7h9-X-X-7h9-X-X-9--11-12--X-X-----|  x16
A|--7---X-X-7---X-X-7--9--10--X-X-----|
E|------------------------------------|

(Guitar 3) with phaser & wah
e|-----|            e|------|
B|-----|            B|------|
G|-----|            G|--9~--|
D|-----| x8 then:   D|------| x8
A|-----|            A|--7~--|
E|-----|            E|--0~--|

Chorus
(Guitar 1)
    Em   D# D    C# C    Bb A    F
e|----------------------------------|
B|----------------------------------|
G|--9~---8--7~---6--5~---3--2~------|
D|--9~---8--7~---6--5~---3--2~---3--| x4
A|--7~---6--5~---4--3~---1--0~---3--|
E|-------------------------------1--|

(Guitar 2)
           e||------------------------------------------------------------|
           B||------------------------------------------------------------|
Same as    G||o-----------------------------------------------------------|
Gtr 1 x1   D||o-----------------5~--5-5-7p5---------------7~--7-7-9p7-----| 
then:      A||--12\-----7~--5/7-------------7~----5~--7/9-------------9~--|
           E||------------------------------------------------------------|

e|-------------------------------------------||
B|-------------------------------------------||
G|------------------------------------------o||
D|-----------5~--5-5-7p5---------------2~---o|| x3
A|---3~--5/7-------------7~----0~--3h4-------||
E|-------------------------------------------||

(Guitar 3)
    Em   D# D    C# C    Bb A    F
e|----------------------------------|                  e|----------------------------------|
B|----------------------------------|                  B|----------------------------------|
G|-------8--7~---6--5~---3--2~------|                  G|----------------------------------|
D|--2~---8--7~---6--5~---3--2~---3--|  first time      D|----------------------------------| x3
A|--2~---6--5~---4--3~---1--0~---3--|  only, then:     A|--7~---6--5~---4--3~---1--0~------| 
E|--0~---------------------------1--|                  E|-------------------------------1--|

The OH Section
(Guitar 1 & 3)                                            1. (first time)          2. (second time)
                                       
    Em                D                 C              Bb    A            F  F     A
e|-------------------------------------------------------|----------------------||-------------------||
B|-------------------------------------------------------|----------------------||-------------------||
G|--9----9----9----9\-7----7----7----7\-5----5----5----3-|---2----2----2-------o||o-2-2-2-2-2-2-2-2-o||
D|--9----9----9----9\-7----7----7----7\-5----5----5----3-|---2----2----2--3--3-o||o-2-2-2-2-2-2-2-2-o||
A|--7--777--777--777\-5--555--555--555\-3--333--333--331-|-000--000--000--3--3--||--0-0-0-0-0-0-0-0--||
E|-------------------------------------------------------|----------------1--1--||-------------------||
"It goes OH! OH! OH!..."

(Guitar 2)                                           1. (first time)      2. (second time)
e|------------------------------------------------------|-------------------||-------------------||
B|------------------------------------------------------|-------------------||-------------------||
G|-12--12--12--12--14--14--14--14/16\14--12--12--12--10-|-9---9---9---1010-o||o-9-9-9-9-9-9-9-9-o||
D|------------------------------------------------------|------------------o||o-----------------o||
A|-10--10--10--10--12--12--12--12/14\12--10--10--10--8--|-7---7---7---8-8---||--7-7-7-7-7-7-7-7--||
E|------------------------------------------------------|-------------------||-------------------||

Guitar Solo
(Guitar 1)
    D E     D E      E  F# G
e|-----------------------------|
B|-----------------------------|
G|-----------------------------|
D|--7/9-9-9-7/9-9-9--9--11-12--| x8
A|--5/7-7-7-5/7-7-7--7--9--10--|
E|-----------------------------|

(Guitar 2) Solo (This definitely isn't it, but sounds ok and is in the same style)
e|---------------------------------------------------------------------------|
B|---------------------------------------------------------------------------|
G|-----------------9-11-12-12-11-9---------12-11-9---------12-11-9-----------|
D|--X\/X---9-11-12-----------------12-11-9---------12-11-9---------12-11-9---|
A|--X\/X---------------------------------------------------------------------|
E|---------------------------------------------------------------------------|

e|---------------------------------------------------------------------------|
B|---------------------------------------------------------------------------|
G|---------12-11-9-----------------------------------------------------------|
D|-12-11-9---------12-11-9---------12-11-9-----------------------------------|
A|-------------------------12-10-9---------12-10-9---------------------------|
E|-------------------------------------------------12~-----------------------|

e|----------------------------------------|
B|------8---8---8---8---8---8---8---8-----|
G|------10b-10b-10b-10b-10b-10b-10b-12----|
D|----------------------------------------| x4
A|----------------------------------------|
E|----------------------------------------|
          (gradual bend up to 12)


(Guitar 3)
          e|----------------------------|    
          B|----------------------------|    
Same as   G|--9-9-9-9-9-9-9-9--9--11-12-|    
Gtr 1 x4  D|----------------------------| x4 
then:     A|--7-7-7-7-7-7-7-7--7--9--10-|  
          E|----------------------------|  

Last Chorus
(Guitar 1)
    D E     D E      E  F# G
e|-----------------------------|
B|-----------------------------|
G|-----------------------------|
D|--7/9-9-9-7/9-9-9--9--11-12--| x8
A|--5/7-7-7-5/7-7-7--7--9--10--|
E|-----------------------------|
"No you can't make me change my name..."

(Guitar 2)
e|-------------------------------------------------|     |-----------------------------|
B|-------------------------------------------------|     |-----------------------------|
G|-12-12-12-12-12-12-12-12-12-12-12-12-12-12-12-12-|     |-----------------------------|
D|-------------------------------------------------| x4  |-7h9-9-9-7h9-9-9--9--11--12--| x4
A|-10-10-10-10-10-10-10-10-10-10-10-10-10-10-10-10-|     |-----------------------------|
E|-------------------------------------------------|     |-----------------------------|

(Guitar 3)
          e|----------------------------|    
          B|----------------------------|    
Same as   G|--9-9-9-9-9-9-9-9--9--11-12-|    
Gtr 1 x4  D|----------------------------| x4 
then:     A|--7-7-7-7-7-7-7-7--7--9--10-|  
          E|----------------------------|  

Ending
(Guitar 1)
   Em D/F# G   D   A
e|--------------------------|
B|--------------------------|
G|-------------7---2~-------|
D|-2---4---5---7---2~-------|
A|-2---5---5---5---0~---0/\-|
E|-0---2---3----------------|

(Guitar 2)
  Em  D/F# G   D  A/C#
e|--------------------------|
B|--------------------------|
G|-------------7---2~-------|
D|-2---4---5---7---2~-------|
A|-2---5---5---5---4~---0/\-|
E|-0---2---3----------------|

(Guitar 3)
e|------------------------|
B|------------------------|
G|-9--11-12--11--14~------|
D|-9--11-12---------------|
A|-7--9--10--9---12~------|
E|------------------------|


2) Feast and the Famine

Guitar 1 (Dave):  E A D G B e
Guitar 2 (Chris): E A D G B e
Guitar 3 (Pat):   E A D G B e

Intro
(Guitar 2)
e|----|-----0-------0-------0------------|-----0-------0-------0-----------|
B|----|-7-------7-------7-------7--------|-3-------3-------3-------3-------|
G|--8-|---8---8---8---8---8---8---8----4-|---4---4---4---4---4---4---4-----|
D|----|----------------------------------|---------------------------------|
A|----|----------------------------------|---------------------------------|
E|----|----------------------------------|---------------------------------|

Verse 1
(Guitar 1)                                                 
e|---|     one time    e|-------------------------------------------------------------------|
B|---|     with vocals B|-------------------------------------------------------------------|
G|---| x1  only, then: G|-------------------------------------------------------------------|
D|---|                 D|--4-4-4-4-4-4-4-4-4-4-4-4-4-4-4----5-5-5-5-5-5-5-5-5-5-5-5-5-5-5---| x2
A|---|                 A|--6-6-6-6-6-6-6-6-6-6-6-6-6-6-6----7-7-7-7-7-7-7-7-7-7-7-7-7-7-7---|
E|---|                 E|-------------------------------------------------------------------|
                           P.M.
"They took your soul and they took you for fools..."
   E
e|-------------------------------------------------------------------|
B|-------------------------------------------------------------------|
G|-------------------------------------------------------------------|
D|-9-9-9-9-9-9-9-9-9-9-9-9-9-9-9----9-9-9-9-9-9-9-9-9-9-9-9-9-9-9-9--|
A|-7-7-7-7-7-7-7-7-7-7-7-7-7-7-7----7-7-7-7-7-7-7-7-7-7-7-7-7-7-7-7--|
E|-------------------------------------------------------------------|

(Guitar 2)
e||---------0-------0-------0----------------0-------0-------0----------|
B||-----7-------7-------7-------7--------3-------3-------3-------3------|
G||o--8---8---8---8---8---8---8---8----4---4---4---4---4---4---4---4----| x2
D||o--------------------------------------------------------------------|
A||---------------------------------------------------------------------|
E||---------------------------------------------------------------------|

e|--------0-------0-------0----------------0-------0-------0-----------||
B|----3-------3-------3-------3--------3-------3-------3-------3-------||
G|--1---1---1---1---1---1---1---1----1---1---1---1---1---1---1---1----o|| repeat both phrases x2
D|--------------------------------------------------------------------o||
A|---------------------------------------------------------------------||
E|---------------------------------------------------------------------||

Chorus
(Guitar 1)                                          1.                  2.
    B                             G                  G         D         G A
e|--0--0-0-0-0-0-0-0-0-0-0-0-0-0--3--3-3-3-3-3-3-3-|-3-3-3-3-3--------||-3----------------||
B|--0--0-0-0-0-0-0-0-0-0-0-0-0-0--3--3-3-3-3-3-3-3-|-3-3-3-3-3-3---3--||-3-2-2-2-2-2-2-2--||
G|--4--4-4-4-4-4-4-4-4-4-4-4-4-4--0--0-0-0-0-0-0-0-|-0-0-0-0-0-2---2-o||-0-2-2-2-2-2-2-2--||
D|--4--4-4-4-4-4-4-4-4-4-4-4-4-4--0--0-0-0-0-0-0-0-|-0-0-0-0-0-0---0-o||-0-2-2-2-2-2-2-2--||
A|--2--2-2-2-2-2-2-2-2-2-2-2-2-2-------------------|------------------||---0-0-0-0-0-0-0--||
E|--------------------------------3--3-3-3-3-3-3-3-|-3-3-3-3-3--------||-3----------------||
  "Amen!!!..."

    E
e|--0---0-0-0-0-0-0-0---0-0-0-0----0-0-0-0-0-0-0-0-0---0-0-0-0--|
B|--0---0-0-0-0-0-0-0---0-0-0-0----0-0-0-0-0-0-0-0-0---0-0-0-0--|
G|--0h1-1-1-1-1-1-1-0h1-1-1-1-1----1-1-1-1-1-1-1-1-0h1-1-1-1-1--|
D|--0h2-2-2-2-2-2-2-0h2-2-2-2-2----2-2-2-2-2-2-2-2-0h2-2-2-2-2--|
A|--0h2-2-2-2-2-2-2-0h2-2-2-2-2----2-2-2-2-2-2-2-2-0h2-2-2-2-2--|
E|--0---0-0-0-0-0-0-0---0-0-0-0----0-0-0-0-0-0-0-0-0---0-0-0-0--|

(Guitar 2)
e|--------0-------0-------0---------------0-------0-------0-------------|
B|----4-------4-------4-------4-------3-------3-------3-------3---------|
G|--4---4---4---4---4---4---4---4---4---4---4---4---4---4---4---4-------|
D|----------------------------------------------------------------------| x2
A|----------------------------------------------------------------------|
E|----------------------------------------------------------------------|

e|--------0-------0-------0---------------0-------0-------0------------|
B|----3-------3-------3-------3-------3-------3-------3-------3--------|
G|--1---1---1---1---1---1---1---1---1---1---1---1---1---1---1---1------| 
D|---------------------------------------------------------------------|
A|---------------------------------------------------------------------|
E|---------------------------------------------------------------------|

(Guitar 3)
                                                    1.                  2.
    Bm                            G                  G         D         G A
e|-------------------------------------------------|------------------||-----------------||
B|-------------------------------------------------|------------------||-----------------||
G|--4--4-4-4-4-4-4-4-4-4-4-4-4-4-------------------|-----------7---7-o||-----------------||
D|--4--4-4-4-4-4-4-4-4-4-4-4-4-4--5--5-5-5-5-5-5-5-|-5-5-5-5-5-7---7-o||-5-7-7-7-7-7-7-7-||
A|--2--2-2-2-0h2-2-2-0h2-2-2-0h2--5--5-5-5-5-5-5-5-|-5-5-5-5-5-5---5--||-5-7-7-7-7-7-7-7-||
E|--------------------------------3--3-3-3-3-3-3-3-|-3-3-3-3-3--------||-3-5-5-5-5-5-5-5-||

e|--0-0-0-0-0-0-0-0-0-0-0-0-0-0----0-0-0-0-0-0-0-0-0-0-0-0-0-0--|
B|--0-0-0-0-0-0-0-0-0-0-0-0-0-0----0-0-0-0-0-0-0-0-0-0-0-0-0-0--|
G|--9-9-9-9-9-9-9-9-9-9-9-9-9-9----9-9-9-9-9-9-9-9-9-9-9-9-9-9--|
D|--9-9-9-9-9-9-9-9-9-9-9-9-9-9----9-9-9-9-9-9-9-9-9-9-9-9-9-9--|
A|--7-7-7-7-7-7-7-7-7-7-7-7-7-7----7-7-7-7-7-7-7-7-7-7-7-7-7-7--|
E|--------------------------------------------------------------|

Verse 2
(Guitar 1 + 3)                                         1.                 2.
    B                               G                   G                  G         A
e|----------------------------------------------------|-----------------||-----------------||
B|----------------------------------3-3-3-3-3-3-3-3-3-|-3-3-3-3-3-3-----||-3-3-3-3-3-2-2-2-||
G|--4-4-4-4-4-4-4-4-4-4-4-4-4-4-4---0-0-0-0-0-0-0-0-0-|-0-0-0-0-0-0----o||-0-0-0-0-0-2-2-2-||
D|--4-4-4-4-4-4-4-4-4-4-4-4-4-4-4---0-0-0-0-0-0-0-0-0-|-0-0-0-0-0-0----o||-0-0-0-0-0-2-2-2-||
A|--2-2-2-2-2-2-2-2-2-2-2-2-2-2-2---------------------|-----------------||-----------0-0-0-||
E|----------------------------------3-3-3-3-3-3-3-3-3-|-3-3-3-3-3-3-----||-3-3-3-3-3-------||
                         
    E
e|---------------------------------------------------------------|
B|--0---0-0-0-0-0-0-0---0-0-0-0-0---0-0-0-0-0-0-0-0-0---0-0-0-0--|
G|--0h1-1-1-1-1-1-1-0h1-1-1-1-1-1---1-1-1-1-1-1-1-1-0h1-1-1-1-1--|
D|--0h2-2-2-2-2-2-2-0h2-2-2-2-2-2---2-2-2-2-2-2-2-2-0h2-2-2-2-2--|
A|--0h2-2-2-2-2-2-2-0h2-2-2-2-2-2---2-2-2-2-2-2-2-2-0h2-2-2-2-2--|
E|--0---0-0-0-0-0-0-0---0-0-0-0-0---0-0-0-0-0-0-0-0-0---0-0-0-0--|

(Guitar 2)
e|--7-7-7-7-7-7-7-7-7-7-7-7-7-7-7---3-3-3-3-3-3-3-3-3-|-3-3-3-3-3-3-----||-3-3-3-3-3-5-5-5-||
B|--7-7-7-7-7-7-7-7-7-7-7-7-7-7-7---3-3-3-3-3-3-3-3-3-|-3-3-3-3-3-3-----||-3-3-3-3-3-5-5-5-||
G|--8-8-8-8-8-8-8-8-8-8-8-8-8-8-8---4-4-4-4-4-4-4-4-4-|-4-4-4-4-4-4----o||-4-4-4-4-4-6-6-6-||
D|----------------------------------------------------|----------------o||-----------------||
A|----------------------------------------------------|-----------------||-----------------||
E|----------------------------------------------------|-----------------||-----------------||

e|--0-0-0-0-0-0-0-0-0-0-0-0-0-0-0---0-0-0-0-0-0-0-0-0-0-0-0-0-0--|
B|--3-3-3-3-3-3-3-3-3-3-3-3-3-3-3---3-3-3-3-3-3-3-3-3-3-3-3-3-3--|
G|--1-1-1-1-1-1-1-1-1-1-1-1-1-1-1---1-1-1-1-1-1-1-1-1-1-1-1-1-1--|
D|---------------------------------------------------------------|
A|---------------------------------------------------------------|
E|---------------------------------------------------------------|

Chorus

Bridge
(Guitar 1) Quietly
e|--2-2-2-2-2-2-2-2-2-2-2-2-2-2-2-3-3-3-3-3-3-3-3-3-3-3-3-3-3-3-3-|    |-0-0-0-0-0-0-0-0-|
B|--4-4-4-4-4-4-4-4-4-4-4-4-4-4-4-3-3-3-3-3-3-3-3-3-3-3-3-3-3-3-3-|    |-2-2-2-2-2-2-2-2-|
G|--4-4-4-4-4-4-4-4-4-4-4-4-4-4-4-4-4-4-4-4-4-4-4-4-4-4-4-4-4-4-4-| x4 |-2-2-2-2-2-2-2-2-|
D|----------------------------------------------------------------|    |-----------------|
A|----------------------------------------------------------------|    |-----------------|
E|----------------------------------------------------------------|    |-----------------|
"Hey...monuments"

e|--2-2-2-2-2-2-2-2-2-2-2-2-2-2-2-|
B|--4-4-4-4-4-4-4-4-4-4-4-4-4-4-4-|
G|--4-4-4-4-4-4-4-4-4-4-4-4-4-4-4-|
D|--------------------------------|
A|--------------------------------|
E|--------------------------------|

e|--3-3-3-3-3-3-3-3-3-3-3-3-3-3-3-3-2-2-2-2-2-2-2-2-2-2-2-2-2-2-2-|    
B|--3-3-3-3-3-3-3-3-3-3-3-3-3-3-3-3-4-4-4-4-4-4-4-4-4-4-4-4-4-4-4-|    
G|--4-4-4-4-4-4-4-4-4-4-4-4-4-4-4-4-4-4-4-4-4-4-4-4-4-4-4-4-4-4-4-| x4 
D|----------------------------------------------------------------|     
A|----------------------------------------------------------------|    
E|----------------------------------------------------------------|    

(Guitar 2) 
e|---|    |-----5---5-------5---5-------5---|    |-----5---5-------5---5-------5---|
B|---|    |---7---7---7---7---7---7---7---7-|    |---3---3---3---3---3---3---3---3-|
G|---| x4 |-4-----------4-----------4-------| x4 |-4-----------4-----------4-------|  Repeat first phrase
D|---|    |---------------------------------|    |---------------------------------|
A|---|    |---------------------------------|    |---------------------------------|
E|---|    |---------------------------------|    |---------------------------------|
                                        
e|--------------------------------------------------------------------------------|
B|--------------------------------------------------------------------------------|
G|-12-------16--------12-------16-------12------14------16------/21------20-------|
D|--------------------------------------------------------------------------------|
A|-10-(x16)-14-(x16)--10-(x16)-14-(x16)-10-(x8)-12-(x8)-14-(x8)-/19-(x8)-18-(x20)-|
E|--------------------------------------------------------------------------------|
                                        (strum twice as fast here)

(Guitar 3)
e|---------------------------------|     |-----------------|     |---------------------------------| 
B|---------------------------------|     |-----------------|     |---------------------------------| 
G|---------------------------------| x 8 |-2-2-2-2-2-2-2-2-| x2  |---------------------------------| 
D|-4-4-4-4-4-4-4-4-4-4-4-4-4-4-4-4-|     |-2-2-2-2-2-2-2-2-|     |-4-4-4-4-4-4-4-4-4-4-4-4-4-4-4-4-|
A|-0h2-2-2-2-2-0h2-2-2-2-2-0h2-2-2-|     |-0-0-0-0-0-0-0-0-|     |-0h2-2-2-2-2-0h2-2-2-2-2-0h2-2-2-|
E|---------------------------------|     |-----------------|     |---------------------------------| 

e|-----------------------------------------------------------|
B|-----------------------------------------------------------|
G|-12-------11--------12-------11-------12-------11----------|
D|-----------------------------------------------------------|
A|-10-(x16)-9--(x16)--10-(x16)-9--(x16)-10-(x16)-9--(x14)----|
E|-----------------------------------------------------------|

Break
(Guitar 2)
e|----|-----0-------0-------0--------|
B|----|-7-------7-------7-------7----|
G|--8-|---8---8---8---8---8---8---8--|
D|----|------------------------------|
A|----|------------------------------|
E|----|------------------------------|

Chorus

Post-Chorus? - Basically the same as the bridge just much louder.
(Guitar 1)
e|--2-2-2-2-2-2-2-2-2-2-2-2-2-2-2-3-3-3-3-3-3-3-3-3-3-3-3-3-3-3-3-|    |-0-0-0-0-0-0-0-0-|
B|--4-4-4-4-4-4-4-4-4-4-4-4-4-4-4-3-3-3-3-3-3-3-3-3-3-3-3-3-3-3-3-|    |-2-2-2-2-2-2-2-2-|
G|--4-4-4-4-4-4-4-4-4-4-4-4-4-4-4-4-4-4-4-4-4-4-4-4-4-4-4-4-4-4-4-| x2 |-2-2-2-2-2-2-2-2-|
D|----------------------------------------------------------------|    |-----------------|
A|----------------------------------------------------------------|    |-----------------|
E|----------------------------------------------------------------|    |-----------------|
"Amen!...monuments"

e|--2-2-2-2-2-2-2-2-2-2-2-2-2-2-2-|
B|--4-4-4-4-4-4-4-4-4-4-4-4-4-4-4-|
G|--4-4-4-4-4-4-4-4-4-4-4-4-4-4-4-|
D|--------------------------------|
A|--------------------------------|
E|--------------------------------|

e|--3-3-3-3-3-3-3-3-3-3-3-3-3-3-3-3-2-2-2-2-2-2-2-2-2-2-2-2-2-2-2-|    
B|--3-3-3-3-3-3-3-3-3-3-3-3-3-3-3-3-4-4-4-4-4-4-4-4-4-4-4-4-4-4-4-|    
G|--4-4-4-4-4-4-4-4-4-4-4-4-4-4-4-4-4-4-4-4-4-4-4-4-4-4-4-4-4-4-4-| x4 
D|----------------------------------------------------------------|     
A|----------------------------------------------------------------|    
E|----------------------------------------------------------------|

(Guitar 2)
e|------------------------------------------------------|
B|------------------------------------------------------|
G|-11------12-------11------12-------14-------11--------|
D|------------------------------------------------------|
A|-9-(x16)-10-(x16)-9-(x16)-10-(x16)-12-(x16)-9-(x16)---|
E|------------------------------------------------------|
                                        
e|--------------------------------------------------------------------------------|
B|--------------------------------------------------------------------------------|
G|-12-------16--------12-------16-------12------14------16------/21------20-------|
D|--------------------------------------------------------------------------------|
A|-10-(x16)-14-(x16)--10-(x16)-14-(x16)-10-(x8)-12-(x8)-14-(x8)-/19-(x8)-18-(x20)-|
E|--------------------------------------------------------------------------------|
                                        (strum twice as fast here)

(Guitar 3)
e|---------------------------------|     |-----------------|     |---------------------------------| 
B|---------------------------------|     |-----------------|     |---------------------------------| 
G|---------------------------------| x4  |-2-2-2-2-2-2-2-2-| x2  |---------------------------------| 
D|-4-4-4-4-4-4-4-4-4-4-4-4-4-4-4-4-|     |-2-2-2-2-2-2-2-2-|     |-4-4-4-4-4-4-4-4-4-4-4-4-4-4-4-4-|
A|-0h2-2-2-2-2-0h2-2-2-2-2-0h2-2-2-|     |-0-0-0-0-0-0-0-0-|     |-0h2-2-2-2-2-0h2-2-2-2-2-0h2-2-2-|
E|---------------------------------|     |-----------------|     |---------------------------------| 

e|-----------------------------------------------------------|
B|-----------------------------------------------------------|
G|-12-------11--------12-------11-------12-------11----------|
D|-----------------------------------------------------------|
A|-10-(x16)-9--(x16)--10-(x16)-9--(x16)-10-(x16)-9--(x14)----|
E|-----------------------------------------------------------|

Break 2
(Guitar 2)
e|----|------0-------0-------0-------0----|    
B|----|--7-------7-------7-------7--------|      
G|--8-|o---8---8---8---8---8---8---8---8--|    
D|----|o----------------------------------| 
A|----|-----------------------------------|    
E|----|-----------------------------------|    

Build-up
(Guitar 1)
e|------5-------5-------5-------5----|
B|----7-------7-------7-------7------|
G|--8-------8-------8-------8--------| x11
D|-----------------------------------| 
A|-----------------------------------|
E|-----------------------------------|    

(Guitar 2)
e|------0-------0-------0-------0----|    |-----5---5-------5---5-------5---|  
B|--7-------7-------7-------7--------|    |---7---7---7---7---7---7---7---7-|    
G|----8---8---8---8---8---8---8---8--|    |-4-----------4-----------4-------| x3
D|-----------------------------------| x8 |---------------------------------|
A|-----------------------------------|    |---------------------------------|
E|-----------------------------------|    |---------------------------------|
  
(Guitar 3)
e|-----------------|    e|---------------------------------| 
B|-----------------|    B|---------------------------------| 
G|-4-4-4-4-4-4-4-4-| x8 G|---------------------------------| x3 
D|-4-4-4-4-4-4-4-4-|    D|-4-4-4-4-4-4-4-4-4-4-4-4-4-4-4-4-|
A|-2-2-2-2-2-2-2-2-|    A|-0h2-2-2-2-2-0h2-2-2-2-2-0h2-2-2-|
E|-----------------|    E|---------------------------------|
  Build..........


Ending
(Guitar 1)
e|-5--5----5-5---5--5--5-5--5\--|   
B|-7--7----7-7---7--7--7-7--7\--|    
G|-8--8----8-8---8--8--8-8--8\--| 
D|------------------------------|    
A|------------------------------|    
E|------------------------------|  

(Guitar 2)
e|-7--7----7-7---7--7--7-7--7\--|   
B|-7--7----7-7---7--7--7-7--7\--|    
G|-8--8----8-8---8--8--8-8--8\--| x4
D|-9--9----9-9---9--9--9-9--9\--|    
A|-9--9----9-9---9--9--9-9--9\--|    
E|-7--7----7-7---7--7--7-7--7\--|

(Guitar 3)
e|-0--0----0-0---0--0--0-0--0\--|   
B|-0--0----0-0---0--0--0-0--0\--|    
G|-4--4----4-4---4--4--4-4--4\--|
D|-4--4----4-4---4--4--4-4--4\--|    
A|-2--2----2-2---2--2--2-2--2\--|    
E|------------------------------|


3) Congregation

Intro
e|-3-3-3--3--2--2-------------------|
B|-3-3-3--3--3--3-----3--3-3--2-0---|
G|-0-0-0--0--0--0-----2--2-2--2-2-2-|
D|----------------2-0-0-----------2-|
A|----------------2-0---------------|
E|----------------------------------|

Verse (Rhythm)
e|-3--2---------------------------------------|
B|-3--3-----3--3-3--2-0-----------------------|
G|-0--0-----2--2-2--2-2-2--2-0-2--0-2--2--0-2-|
D|-------2--------------2--2-0-2--0-2--2--0-2-|
A|-------2------------------------------------|
E|--------------------------------------------|

Verse (Lead)
e|-----------------------------------------------|
B|-----------------------------------------------|
G|-11b12r11--9--7--7-7-9-7-9b11-6----9b11-6------|
D|---------------------------------9---------9-7-|
A|-----------------------------------------------|
E|-----------------------------------------------|

e|-----------------------------------------------|
B|-----------------------------------------------|
G|-11b12r11--9--7--7-7-9-7-9b11-6----------------|
D|---------------------------------9-7----7h9-7--|
A|-----------------------------------------------|
E|-----------------------------------------------|

Pre-Chorus
e|-0---------------------------3--3--3-3--2--2--2-2-2-0-|
B|-0---------------------------0--0--0-0--3--3--3-3-3-0-|
G|-0---0--0-0-0-0--0--0-0-0-0--0--0--0-0--2--2--2-2-2-0-|
D|-2---2--2-2-2-2--2--2-2-2-2--0--0--0-0----------------|
A|-2---2--2-2-2-2--2--2-2-2-2--2--2--2-2----------------|
E|-0---0--0-0-0-0--0--0-0-0-0--3--3--3-3----------------|

e|------------3--3--3-3--0--0--0-0-0-0--0--0-0-0-|
B|------------0--0--0-0--2--2--2-2-2-2--2--2-2-2-|
G|-0--0--0-0--0--0--0-0--2--2--2-2-2-2--2--2-2-2-|
D|-2--2--2-2--0--0--0-0--2--2--2-2-2-2--2--2-2-2-|
A|-2--2--2-2--2--2--2-2--0--0--0-0-0-0--0--0-0-0-|
E|-0--0--0-0--3--3--3-3--------------------------|

Chorus (Rhythm)
e|-2-2-2-2--2--2-2-2-2--2--2-2-2-0--0--0-0-0---------------|
B|-3-3-3-3--3--3-3-3-3--3--3-3-3-1--1--1-1-1---------------|
G|-2-2-2-2--2--2-2-2-2--2--2-2-2-2--2--2-2-2-0--0--0-0-0-0-|
D|-------------------------------2--2--2-2-2-2--2--2-2-2-2-|
A|-------------------------------0--0--0-0-0-2--2--2-2-2-2-|
E|-------------------------------------------0--0--0-0-0-0-|

Chorus (Lead)
e|---------------------------------|
B|--------10-----------------------|
G|-7h9s11-----7h9s11-7--7h9s11-----|
D|-----------------------------10--|
A|---------------------------------|
E|---------------------------------|

Guitar Solo 

e|-0-0-0-0-0-0-0-0-0-0-0-0-0-0-0-0-10----10-10----------------------------|
B|-5-5-5-7-5-5-5-8-8-7-7-5-5-3-3-0-10h12-12-10h12-10----------------------|
G|---------------------------------------------------12-11---11b12r11-----|
D|--------------------------------------------------------------------12--|
A|------------------------------------------------------------------------|
E|------------------------------------------------------------------------|

e|---0---0-0----------------------3-----7------10-------14-----|
B|---5---3-0-0-0--0-0-0-0-0-0----------------------------------|
G|-----------2/4--4-4-4-4-2-0--2/4---4/7---7/11----11/14-------|
D|-------------------------------------------------------------|
A|-------------------------------------------------------------|
E|-------------------------------------------------------------|

e|---0-------------------------------15-15-15-17-17-19-19-14-14-14-14--14---------|
B|---17---17-15----12----------------15-15-15-15-15-15-15-15-15-15-15--15--17--15-|
G|--------------14---12-14----12--------------------------14-14-14-14--14--14--14-|
D|-------------------------14----14-----------------------------------------------|
A|--------------------------------------------------------------------------------|
E|--------------------------------------------------------------------------------|

e|---------------------------------------------------------------------------|
B|---5--------8-------12--------15-----------------17------------------------|
G|---7b9------10b12---14b16-----17b19--------------19b21---------------------|
D|---------------------------------------------------------------------------|
A|---------------------------------------------------------------------------|
E|---------------------------------------------------------------------------|


Breakdown (Rhythm)
e|-------------------------------------------|
B|------------------------(5)(5)(5)(5)(5)(5)-|
G|-7-7-7-7-7-7-7-7-7-7-7-7-7b-7b-7b-7b-7b-7b-|
D|-------------------------------------------|
A|-------------------------------------------|
E|-------------------------------------------|x times

e|---------------------------------------------------------------------------------------------|
B|---------------------------------------------------------------------------------------------|
G|-7-7-7-7-7-7-7-7-7-7-7-7-7-7-7-5-5-5-5-5-5-5-5-5-5-5-5-5-5-5-5-5-4-4-4-4-4-4-4-4-4-4-4-4-4-4-|
D|-7-7-7-7-7-7-7-7-7-7-7-7-7-7-7-5-5-5-5-5-5-5-5-5-5-5-5-5-5-5-5-5-5-5-5-5-5-5-5-5-5-5-5-5-5-5-|
A|---------------------------------------------------------------------------------------------|
E|---------------------------------------------------------------------------------------------|

e|--------------------------------------------------------------------------------------------|
B|--------------------------------------------------------------------------------------------|
G|-7-7-7-7-7-7-7-7-7-7-7-7-7-10-10-10-10-10-10-10-10-10-10-10-10-10-12-12-12-12-12-12-12-12-12|
D|-7-7-7-7-7-7-7-7-7-7-7-7-7-10-10-10-10-10-10-10-10-10-10-10-10-10-12-12-12-12-12-12-12-12-12|
A|--------------------------------------------------------------------------------------------|
E|--------------------------------------------------------------------------------------------|

Breakdown (Lead)
e|----------------------------------------------------------|
B|-------6-----------------------------------------------6--|
G|-7-5-7----7-5-7----7-5-7-----7-5-7-------------5s7-5-7----|
D|----------------7---------6--------5--5-5-3---------------|
A|--------------------------------------------5-------------|
E|----------------------------------------------------------|


4) What did I do?/God as my Witness

Intro D
                            G            A
There you go again putting words into my mouth
Em                             G                 A        
This is one's for you to know, and for me to find out
A( crescendo)
D        Cadd9    G           A
All that troubling you're on about
Em                              G           A
How you're gonna know 'till you hear it out loud?


e||---2-2----3-3---3-3-------------------------------|
B||---3-3----3-3---3-3-----------2-2-------2-2-------|
G||---2-2----2-2---0-0-----------2-2-------2-2-------|
D||-0------------------2---------2-2-------2-2-------|
A||--------3-----2-----2---------0-0-------0-0-0h2h4-|
E||--------------------0---3-2-3-----3-2-3-----------|

D      Cadd9      G/B        Emi  
  Stop ask myself what did I do?
G          A       G     A
What did I do to deserve you?!
D          Cadd9      G/B         Emi  
  Come on, tell me now what did I do?
G          A        G      A
What did I do to deserve you?

e||-------|
B||-------|
G||-------|
D||-------|
A||-0-3-4-|
E||-------|

F#m                                           A
I heard every word coming from the thirteenth floor

e||---------|
B||---------|
G||---------|
D||---------|
A||-0-3-4-0-|
E||---------|

F#m
Your song came along and I heard the voices telling me
   G                   Asus     A
To save yourself, Oh behave yourself

D             Cadd9      G/B        Emi  
   I stop,    ask myself what did I do?
G          A        G     A
What can I do to preserve you?!
D           Cadd9       G/B        Emi  
   Come on, tell me now what can I do?
G          A        G     A
What can I do to conserve you?
F#m                                                  A
Your name, Vrethane, I could see the writing on the wall
F#m
Come on, flip a coin, bet it's going to tell you
   G                   Asus     A
To save yourself, Oh behave yourself

What Did I Do? Solo:

(Chris Shifflet)


e|-10-10-10---10-10-------10-10---10-10--------------------------------------|
B|-10-10-10---10-10-------10-10---10-10--------------------------------------|
G|------------------12b14---------------12b14--------------------------------|
D|---------------------------------------------------------------------------|
A|---------------------------------------------------------------------------|
E|---------------------------------------------------------------------------|

e|-10-10-12-12-12-12---------------------------------------------------------|
B|-10-10-12-12-12-12----8-7-8-10----10-10-10---------------------------------|
G|----------------------7-6-7-9-----9--9--9----------------------------------|
D|---------------------------------------------------------------------------|
A|---------------------------------------------------------------------------|
E|---------------------------------------------------------------------------|

play twice above

e|---------------------------------------------------------------------------|
B|---------------------------------------------------------------------------|
G|--9b11--9b11---9--7--7-7-----7----7h9-7------------------------------------|
D|-------------------------7s9----9-------9----------------------------------|
A|---------------------------------------------------------------------------|
E|---------------------------------------------------------------------------|

e|---------------------------------------------------------------------------|
B|--8-7-8-10----10-10-10------8-7-8-10----10-10-10---------------------------|
G|--7-6-7-9-----9--9--9-------7-6-7-9-----9--9--9----------------------------|
D|---------------------------------------------------------------------------|
A|---------------------------------------------------------------------------|
E|---------------------------------------------------------------------------|

Solo backing:

D Cadd9 G/B Emi G F# G A  G F# G A D Cadd9 G/B Emi G F# G A   G F# G A

F#m                                           A
Young man channelin' know him by the X on his hand
F#m
You raise runaways singin' at the gate
   G                   Asus      A    (slow)
To save yourself, Oh behave yourself

D (crescendo) 

   D      Cadd9            G               A
So here I go again putting words into your mouth
Em                          G                  A
This one's for me to know, and for you to find out
A( crescendo)

D        Cadd9     G       A
All that troubling I'm on about
Em                           G           A
How you gonna know 'till you hear it out loud?


e||---------0----------0--|
B||-------3----------3----|
G||-----4----------0------|
D||---4----------3--------|
A||-2----------1----------|
E||-----------------------|

Bmi(add11)       Bb6(add#11)
All your heroes, where are they now?

e||-----------------------------------------------------------------|
B||-----3-------3-------3-------3---------8---------------------3---|
G||---2---2---2---2---2---2---2---2-----9-------7-------7-----2---2-|
D||-0---------------------------------9-------7---7---7---7---------|
A||---------4-------2-------0-------7-------5-------4-------2-------|
E||-----------------------------------------------------------------|

e||---------------------------|
B||-----3-------3-------------|
G||---2---2---2--2------------|
D||---------------------------|
A||-0------------------0--0-2-|
E||---------3------2-3--------|

D    D/C# Bm Asus  Em     D          D/C#    Bm   A  G/A
I'm Lost, Deliver Me, I crossed the river finally
D   D/C#  Bm      Asus             Em   D  D/C# Bm A  G/A
God as my witness, yeah it's gonna heal my soul tonight
D   D/C#  Bm      Asus             Em   D D/C#  Bm A  G/A
God as my witness, yeah it's gonna heal my soul tonight
D   D/C#  Bm      Asus             Em   D D/C#  Bm A  G/A
God as my witness, yeah it's gonna heal my soul tonight
D   D/C#  Bm      Asus             Em   D D/C#  Bm A  G/A
D   D/C#  Bm      Asus             Em   D D/C#  Bm A  G/A
D   D/C#  Bm      Asus             Em   D D/C#  Bm A  G/A
God as my witness, yeah you gonna  heal my soul tonight
D   D/C#  Bm      Asus             Em   D D/C#  Bm A  G/A
God as my witness, yeah you gonna  heal my soul tonight

God As My Witness Solo:

(Gary Clark Jr.)

e|-------------10-----12-----14--14-15-14-15-17--17b19--14--14--14h15p-14-12-|
B|---------------------------------------------------------------------------|
G|------7h9s11----s14----s16-------------------------------------------------|
D|--7h9----------------------------------------------------------------------|
A|---------------------------------------------------------------------------|
E|---------------------------------------------------------------------------|


e|--10-----------10-------------10-----------10------------------------------|
B|-----10-13b15-----10-15b15.5-----10-13b16-----10-13b16.5-------------------|
G|---------------------------------------------------------------------------|
D|---------------------------------------------------------------------------|
A|---------------------------------------------------------------------------|
E|---------------------------------------------------------------------------|


e|--10-----------------10--------------------15b17--14b15--15b17--15h17p15---|
B|-----10-13b15--(x5)-----13b15--15-15-18b19---------------------------------|
G|---------------------------------------------------------------------------|
D|---------------------------------------------------------------------------|
A|---------------------------------------------------------------------------|
E|---------------------------------------------------------------------------|


e|--------------15b17--------------------------------------------------------|
B|--15-15-18b19-------17b19--15---------15-17b19r17-15----15--7h8-7h8--10----|
G|-------------------------------14h16-----------------16-----7---7----------|
D|---------------------------------------------------------------------------|
A|---------------------------------------------------------------------------|
E|---------------------------------------------------------------------------|

5) Outside

e|--------------------------|
B|--------------------------|
G|-4---4---4---4---4---4----|
D|---5---5---5---5---5---5--|
A|--------------------------|
E|--------------------------|

Bass
G|------------------------------------------------------------|
D|------------------------------------------------------------|
A|------------------------------------------------------------|
E|-5-5-5-8--8-8-0--0-3-0--0-3-0--5-5-5-8--8-8-0--0-3-0--0-0-0-|

Intro
Gtr 1
e|------------------------------------------------------------------|
B|------------------------------------------------------------------|
G|------------------------------------------------------------------|
D|-7-7-7-10--10-10-2--2---2--2---2--7-7-7-10--10-10-2--2---2--2-2-2-|
A|-7-7-7-10--10-10-2--2---2--2---2--7-7-7-10--10-10-2--2---2--2-2-2-|
E|-5-5-5-8---8--8--0--0-3-0--0-3-0--5-5-5-8---8--8--0--0-3-0--0-0-0-|

Gtr 2
e|---------------------------------------------------------|
B|---------------------------------------------------------|
G|-----------------4---4----------------------------4------|
D|-------------------5---5----------------------------5----|
A|------------------------------------------------------5--|
E|---------------------------------------------------------|

Verse
Gtr 1
e|----------0----------------------0----------|
B|-------1----1------0----------1----1------0-|
G|-----2-----------0---0------2-----------0-0-|
D|---2-----------2----------2-----------2-----|
A|-0----------------------0-------------------|
E|--------------------------------------------|

Gtr 2
e|---------------------------------------|
B|---------------------------------------|
G|-4h5p4--------4h5p4--------4h5p4-------|
D|-------7-5-7--------7-5----------7-5---|
A|------------------------7------------7-|
E|---------------------------------------|

Chorus
Gtr 1
e|--------------------------------------------------------------------|
B|--------------------------------------------------------------------|
G|-7-7-7-7--7--7-7------------------------------------7-7-7-7--7--7-7-|
D|-7-7-7-7--7--7-7--7-7-7-7--7--7-7--2-2-2-2--2--2-2--7-7-7-7--7--7-7-|
A|-5-5-5-5--5--5-5--7-7-7-7--7--7-7--2-2-2-2--2--2-2--5-5-5-5--5--5-5-|
E|------------------5-5-5-5--5--5-5--0-0-0-0--0--0-0------------------|

e|----------------------------------------------------------------------------------------|
B|----------------------------------------------------------------------------------------|
G|-5-5-5-5--5--5-5------------------------------------7-7-7-9-9-9-11-11-11-12-12-12-14-16-|
D|-5-5-5-5--5--5-5--7-7-7-7--7--7-7--2-2-2-2--2--2-2--------------------------------------|
A|-3-3-3-3--3--3-3--7-7-7-7--7--7-7--2-2-2-2--2--2-2--5-5-5-7-7-7-9--9--9--10-10-10-12-14-|
E|------------------5-5-5-5--5--5-5--0-0-0-0--0--0-0--------------------------------------|

Gtr 2
e|----------------------------------------------------------|
B|-10---------------10---------------8----------------7-----|
G|-12b14------------12b14------------10b12------------9b11--|
D|----------------------------------------------------------|
A|----------------------------------------------------------|
E|----------------------------------------------------------|

e|------------------------------------------------------------------------------|
B|-13---------------15-------17------20--------20b22-22-22-22r20b22-22-22-22-22-|
G|-15b17------------17b19----19b21---22b24--------------------------------------|
D|------------------------------------------------------------------------------|
A|------------------------------------------------------------------------------|
E|------------------------------------------------------------------------------|

Breakdown
Gtr 1
e|-----------------------------------|
B|-----------------------------------|
G|----5--4---------------------------|
D|----------5--4h5p4-----------------|
A|-0-----------------5--3h5p3-0------|
E|-------------------------------3b--|

Gtr 2
e|--------------------------------------|
B|----5--3--8--10h12p10-----------------|
G|----------------------11-12h14p12-----|
D|----------------------------------14--|
A|--------------------------------------|
E|--------------------------------------|2x

e|---------------------------------------------------------------------------|
B|---------------------------------------------------------------------------|
G|-9-9-9-9-9-9-9-9-9-9-9-9-9-9-9-9-11-12-12-12-12-12-12-12-12-12-12-12-12----|
D|---------------------------------------------------------------------------|
A|-7-7-7-7-7-7-7-7-7-7-7-7-7-7-7-7-9--10-10-10-10-10-10-10-10-10-10-10-10----|
E|---------------------------------------------------------------------------|

e|---------------------------------------------------------------------------|
B|---------------------------------------------------------------------------|
G|-14-14-14-14-14-14-14-14-14-14-14-16-17-17-17-17-17-17-17-17-17-19-19-19---|
D|---------------------------------------------------------------------------|
A|-12-12-12-12-12-12-12-12-12-12-12-14-15-15-15-15-15-15-15-15-15-17-17-17---|
E|---------------------------------------------------------------------------|

e|-------------------------------------------|
B|-------------------------------------------|
G|-7-7-7-7--7-7-7-7--7-7-7-7--7-7-7-7--------|
D|-7-7-7-7--7-7-7-7--7-7-7-7--7-7-7-7--------|
A|-5-5-5-5--5-5-5-5--5-5-5-5--5-5-5-5----0---|
E|------------------------------------3b-----|

Solo (Courtesy of RicardoT213)

e|----------------------------------5-----------10b12r10-8-7----------------|
B|------------------------------------5-8b10-----------------8--------------|
G|-7b9r7-5-7b9---7b9r7-5-7-----7b9-----------------------------9------------|
D|--------------------------------------------------------------------------|
A|--------------------------------------------------------------------------|
E|--------------------------------------------------------------------------|


e|-10b12-10b12-10b12-10h12-10h12-10h12-10h12-10b12r10-8----------------------|
B|------------------------------------------------------10-------------------|
G|---------------------------------------------------------------------------|
D|---------------------------------------------------------------------------|
A|---------------------------------------------------------------------------|
E|---------------------------------------------------------------------------|


e|-15b17---------15--------------10h12-10h12-10h12---8-----------------------|
B|-------13---13--------8-8-10b-------------------------10-10----------------|
G|---------------------------------------------------------------------------|
D|---------------------------------------------------------------------------|
A|---------------------------------------------------------------------------|
E|---------------------------------------------------------------------------|


e|-------17-17-17-17-------------17-17-17-17-------------17-17-17-17--20b22--|
B|-20b22-------------20b---20b22-------------20b---20b22---------------------|
G|---------------------------------------------------------------------------|
D|---------------------------------------------------------------------------|
A|---------------------------------------------------------------------------|
E|---------------------------------------------------------------------------|


e|-22r20-17---17----17-------17-17----17-------17----17-------17-17----17-------17-17---20b22-20b22-20b22-|
B|---------------20----20b22-------20----20b22----20----20b22-------20----20b22---------------------------|
G|--------------------------------------------------------------------------------------------------------|
D|--------------------------------------------------------------------------------------------------------|
A|--------------------------------------------------------------------------------------------------------|
E|--------------------------------------------------------------------------------------------------------|


6) In the Clear

Intro

Guitar 1

   G   G  G  G  G      G G  G  G     (Chords by Guitar 3)
e||--------------------------------|
B||--------------------------------|
G||--------------------------------|
D||-5--4------------------5--4-----|
A||-------5--2--0h2p0-----------5--|
E||--------------------3-----------| 

Guitar 2

e|---------------------------------|---------------------------------|
B|-8-8-8-7-7-7---------------------|-8-8-8-7-7-7---------------------|
G|-------------7-7-7-4-4-4-4-5-4---|-------------7-7-7-7-7-7-7-7-7-7-|
D|-------------------------------7-|---------------------------------|
A|---------------------------------|---------------------------------|x2
E|---------------------------------|---------------------------------|

Verse - Gtr 1
e|-------------------------------|
B|-------------------------------|
G|-------------------------------|
D|-5-----------------------------|
A|-5-----------------------------|
E|-3-3-3-3-3-3-3-3-3-3-3-3-3-3-3-|
     * * * * * * * * * * * * * *

e|-----------------------------|
B|-----------------------------|
G|-----------------------------|
D|-----------------------------|
A|-----------------------------|
E|-3-3-3-3-3-3-3-3-3-3-3-3-3-3-| Xx
   * * * * * * * * * * * * * *

e||-------------------------------|
B||-------------------------------|
G||-------------------------------|
D||-------------------------------|
A||-2-2-2-2-2-2-4-5-5-5-5-5-5-5-5-|
E||-0-0-0-0-0-0-2-3-3-3-3-3-3-3-3-| 3x
    * * * * * * * * * * * * * * *

e||---------------------------------------|
B||---------------------------------------|
G||---------------------------------------|
D||---------------------------------------|
A||-7-7-7-7-7-7-9-10-10-10-10-10-10-10-10-|
E||-5-5-5-5-5-5-7-8--8--8--8--8--8--8--8--|
    * * * * * * * *  *  *  *  *

Verse - Gtr 2
e||-3--3-3-|
B||-3--3-3-|
G||-0--0-0-|
D||--------|
A||--------|
E||--------|


Chorus

e||----------------------|
B||----------------------|
G||----------------------|
D||-2--2-4-5-5-5-5-5-5-5-|
A||-2--2-4-5-5-5-5-5-5-5-|
E||-0--0-2-3-3-3-3-3-3-3-| 2x

e||---------------------------------|
B||---------------------------------|
G||---------------------------------|
D||-7--7-7-7-9-10-10-10-10-10-10-10-|
A||-7--7-7-7-9-10-10-10-10-10-10-10-|
E||-5--5-5-5-7-8--8--8--8--8--8--8--|



Song: "In the Clear"
Artist: Foo Fighters
Album: Sonic Highways (2014)
Tabbed by: Chris on 11/11/14
Tuning: Standard (EADGBe)

*This is my first tab but I think it's pretty spot on. Feel free to comment*
                                        
INTRO

e|---------------------------------|---------------------------------|
B|-8-8-8-7-7-7---------------------|-8-8-8-7-7-7---------------------|
G|-------------7-7-7-4-4-4-4-5-4---|-------------7-7-7-7-7-7-7-7-7-7-|
D|-------------------------------7-|---------------------------------|
A|---------------------------------|---------------------------------|x2
E|---------------------------------|---------------------------------|


VERSE

e|---------------------------------|---------------------------------|
B|---------------------------------|---------------------------------|
G|-4-------------------------------|---------------------------------|
D|-5---5-5-5-5-5-5-5-5-5-5-5-5-5-5-|-5-5-5-5-5-5-5-5-5-5-5-5-5-5-5-5-|
A|-5---5-5-5-5-5-5-5-5-5-5-5-5-5-5-|-5-5-5-5-5-5-5-5-5-5-5-5-5-5-5-5-|
E|-3---3-3-3-3-3-3-3-3-3-3-3-3-3-3-|-3-3-3-3-3-3-3-3-3-3-3-3-3-3-3-3-|
     PM* * * * * * * * * * * * * *   * * * * * * * * * * * * * * * *
   G
  "There are days I might not make it..."

e|---------------------------------|---------------------------------|
B|---------------------------------|---------------------------------|
G|---------------------------------|---------------------------------|
D|-5-5-5-5-5-5-5-5-5-5-5-5-5-5-5-5-|-5-5-5-5-5-5-5-5-5-5-5-5-5-5-5-5-|
A|-5-5-5-5-5-5-5-5-5-5-5-5-5-5-5-5-|-5-5-5-5-5-5-5-5-5-5-5-5-5-5-5-5-|
E|-3-3-3-3-3-3-3-3-3-3-3-3-3-3-3-3-|-3-3-3-3-3-3-3-3-3-3-3-3-3-3-3-3-|
   * * * * * * * * * * * * * * * *   * * * * * * * * * * * * * * * * 
   G
  "There are days I might start break-in'..."


e|---------------------------------|---------------------------------|
B|---------------------------------|---------------------------------|
G|---------------------------------|---------------------------------|
D|-5-5-5-5-5-5-5-5-5-5-5-5-5-5-5-5-|-5-5-5-5-5-5-5-5-5-5-5-5-5-5-5-5-|
A|-5-5-5-5-5-5-5-5-5-5-5-5-5-5-5-5-|-5-5-5-5-5-5-5-5-5-5-5-5-5-5-5-5-|
E|-0-0-0-0-0-2-2-3-3-3-3-3-3-3-3-3-|-0-0-0-0-0-2-2-3-3-3-3-3-3-3-3-3-|
   * * * * * * * * * * * * * * * *   * * * * * * * * * * * * * * * *
   Em            D/F#     G            Em      D/F#  G
  "When the rain starts comin' down as heavy as the air..."

e|---------------------------------|---------------------------------|
B|---------------------------------|---------------------------------|
G|---------------------------------|---------------------------------|
D|-5-5-5-5-5-5-5-5-5-5-5-5-5-5-5-5-|-7-7-7-7-7-9-9-101010101010101010|
A|-5-5-5-5-5-5-5-5-5-5-5-5-5-5-5-5-|-7-7-7-7-7-9-9-101010101010101010|
E|-0-0-0-0-0-2-2-3-3-3-3-3-3-3-3-3-|-5-5-5-5-5-7-7-8-8-8-8-8-8-8-8-8-|
   * * * * * * * * * * * * * * * *   * * * * * * * * * * * * * * * *
   Em          D/F# G               Am         B   C                   
  "You can find me dancin' with the spirits in the square, godd*mn, I-

e|---------------------------------|
B|---------------------------------|
G|-4-------------------------------|
D|-5---5-5-5-5-5-5-5-5-5-5-5-5-5-5-|
A|-5---5-5-5-5-5-5-5-5-5-5-5-5-5-5-|
E|-3---3-3-3-3-3-3-3-3-3-3-3-3-3-3-|
     PM* * * * * * * * * * * * * *
   G
  -swear..."

e|---------------------------------|---------------------------------|
B|---------------------------------|---------------------------------|
G|---------------------------------|---------------------------------|
D|-5-5-5-5-5-5-5-5-5-5-5-5-5-5-5-5-|-5-5-5-5-5-5-5-5-5-5-5-5-5-5-5-5-|
A|-5-5-5-5-5-5-5-5-5-5-5-5-5-5-5-5-|-5-5-5-5-5-5-5-5-5-5-5-5-5-5-5-5-|
E|-3-3-3-3-3-3-3-3-3-3-3-3-3-3-3-3-|-3-3-3-3-3-3-3-3-3-3-3-3-3-3-3-3-|
   * * * * * * * * * * * * * * * *   * * * * * * * * * * * * * * * * 
   G
  "There are times I feel like givin' in..."

e|---------------------------------|---------------------------------|
B|---------------------------------|---------------------------------|
G|---------------------------------|---------------------------------|
D|-5-5-5-5-5-5-5-5-5-5-5-5-5-5-5-5-|-5-5-5-5-5-5-5-5-5-5-5-5-5-5-5-5-|
A|-5-5-5-5-5-5-5-5-5-5-5-5-5-5-5-5-|-5-5-5-5-5-5-5-5-5-5-5-5-5-5-5-5-|
E|-3-3-3-3-3-3-3-3-3-3-3-3-3-3-3-3-|-3-3-3-3-3-3-3-3-3-3-3-3-3-3-3-3-|
   * * * * * * * * * * * * * * * *   * * * * * * * * * * * * * * * * 
   G
  "There are times I begin to begin again..."

e|---------------------------------|---------------------------------|
B|---------------------------------|---------------------------------|
G|---------------------------------|---------------------------------|
D|-5-5-5-5-5-5-5-5-5-5-5-5-5-5-5-5-|-5-5-5-5-5-5-5-5-5-5-5-5-5-5-5-5-|
A|-5-5-5-5-5-5-5-5-5-5-5-5-5-5-5-5-|-5-5-5-5-5-5-5-5-5-5-5-5-5-5-5-5-|
E|-0-0-0-0-0-2-2-3-3-3-3-3-3-3-3-3-|-0-0-0-0-0-2-2-3-3-3-3-3-3-3-3-3-|
   * * * * * * * * * * * * * * * *   * * * * * * * * * * * * * * * *
   Em          D/F#  G                   Em       D/F#  G
  "Look outside the world keeps spinnin' like a paddlewheel..."

e|---------------------------------|---------------------------------|
B|---------------------------------|---------------------------------|
G|---------------------------------|---------------------------------|
D|-5-5-5-5-5-5-5-5-5-5-5-5-5-5-5-5-|-7-7-7-7-7-9-9-101010101010101010|
A|-5-5-5-5-5-5-5-5-5-5-5-5-5-5-5-5-|-7-7-7-7-7-9-9-101010101010101010|
E|-0-0-0-0-0-2-2-3-3-3-3-3-3-3-3-3-|-5-5-5-5-5-7-7-8-8-8-8-8-8-8-8-8-|
   * * * * * * * * * * * * * * * *   * * 
   Em        D/F#  G              Am       B   C                   
  "Rollin for the broken-hearted waitin' on a meal..."

CHORUS

e|-------------0--------3-33-3333-|-----0-------3-33-3333-|
B|-------------3--------3-33-3333-|-----3-------3-33-3333-|
G|-------------0--------0-00-0000-|-----0-------0-00-0000-|
D|---------x-x-2--x-0-x-0-00-0000-|-x-x-2-x-0-x-0-00-0000-|
A|---------x-x-2--x-0-x-2-22-2222-|-x-x-2-x-0-x-2-22-2222-|
E|---------x-x-0--x-2-x-3-33-3333-|-x-x-0-x-2-x-3-33-3333-|
   
                Em  F#    G               Em   D/F#  G
  "You know I'm not in the clear, you are not in the clear. Don't you go...

e|--0-0-0-0-0-00-0000---|
B|--1-1-1-1-1-11-1111---|
G|--2-2-2-0-0-00-0000---|
D|--2-2-2-0-2-22-2222---|
A|--0-0-0-2-3-33-3333---|
E|----------------------|
   
    Am          C/B  C
  ...count me out now, dear..."

e|-------------0--------3-33-3333-|-----0-------3-33-3333-|
B|-------------3--------3-33-3333-|-----3-------3-33-3333-|
G|-------------0--------0-00-0000-|-----0-------0-00-0000-|
D|---------x-x-2--x-0-x-0-00-0000-|-x-x-2-x-0-x-0-00-0000-|
A|---------x-x-2--x-0-x-2-22-2222-|-x-x-2-x-0-x-2-22-2222-|
E|---------x-x-0--x-2-x-3-33-3333-|-x-x-0-x-2-x-3-33-3333-|
   
                Em  F#    G               Em   D/F#  G
  "You know I'm not in the clear, you are not in the clear. Don't you go...


Breakdown

   G   G  G  G  G      G G  G  G
e||--------------------------------|
B||--------------------------------|
G||--------------------------------|
D||-5--4------------------5--4-----|
A||-------5--2--0h2p0-----------5--|
E||--------------------3-----------|

   Em  Em Em Em Em     Em Em Em Em
e||--------------------------------|
B||--------------------------------|
G||--------------------------------|
D||-5--4------------------5--4-----|
A||-------5--2--0h2p0-----------5--|
E||--------------------3-----------|  

   Cadd9  Cadd9 Cadd9     C# E  A
e||--------------------------------|
B||--------------------------------|
G||--------------------------------|
D||-5--4---------------------------|
A||-------5--2--0h2p0-----4--7--12-|
E||--------------------3-----------|


Solo

Guitar 1 (Chords by Guitar 3)

    G   G  G  G  G      G G   G  
e||-----------------------------|
B||-8--7----------------8--7----|
G||-------7--4--2-4-2-0-------7-|
D||-----------------------------|
A||-----------------------------|
E||-----------------------------|

   Em  Em Em Em Em      Em Em Em 
e||-----------------------------|
B||-8--7----------------8--7----|
G||-------7--4--2-4-2-0-------7-|
D||-----------------------------|
A||-----------------------------|
E||-----------------------------|

    Cadd9  Cadd9 Cadd9  C# E  A
e||------------------------------|
B||-8--7-------------------------|
G||-------7--4--2-4-2-0-6--9--14-|
D||------------------------------|
A||------------------------------|
E||------------------------------|

Guitar 2

e|---------------------------------|---------------------------------|
B|--8--7--8/10--10/12--12-12-12----|--8--7---------------------------|
G|---------------------------------|--------7--7-7--7-7-7------------|
D|---------------------------------|---------------------------------|
A|---------------------------------|---------------------------------|
E|---------------------------------|---------------------------------|

e|---------------------------------|---------------------------------|
B|--8--7--8/10--10/12--12-12-12----|--8--7---------------------------|
G|---------------------------------|--------7--7-7--7-7-7------------|
D|---------------------------------|---------------------------------|
A|---------------------------------|---------------------------12\\\-|
E|---------------------------------|----------------------///12------|

e|---------------------------------|-------------------17-17-17-17-17|
B|--8--7--8/10--10/12--12-12-12-12-|-14-14-14-17-17-17---------------|
G|---------------------------------|---------------------------------|
D|---------------------------------|---------------------------------|
A|---------------------------------|---------------------------------|
E|---------------------------------|---------------------------------|

CHORUS 3

e|-------------0--------3-33-3333-|-----0-------3-33-3333-|
B|-------------3--------3-33-3333-|-----3-------3-33-3333-|
G|-------------0--------0-00-0000-|-----0-------0-00-0000-|
D|---------x-x-2--x-0-x-0-00-0000-|-x-x-2-x-0-x-0-00-0000-|
A|---------x-x-2--x-0-x-2-22-2222-|-x-x-2-x-0-x-2-22-2222-|
E|---------x-x-0--x-2-x-3-33-3333-|-x-x-0-x-2-x-3-33-3333-|
   
                Em  F#    G               Em   D/F#  G
  "You know I'm not in the clear, you are not in the clear. Don't you go...

e|--0-0-0-0-0--0-0------|
B|--1-1-1-1-1--1-1------|
G|--2-2-2-0-0--0-0------|
D|--2-2-2-0-2--2-2------|
A|--0-0-0-2-3--3-3------|
E|----------------------|
   
    Am          C/B  C
  ...count me out now, dear..."

e|------------0--------3-33-3333-|--------0-------3-33-3333-|
B|------------3--------3-33-3333-|--------3-------3-33-3333-|
G|------------0--------0-00-0000-|--------0-------0-00-0000-|
D|------------2--x-0-x-0-00-0000-|--------2-x-0-x-0-00-0000-|
A|---2-5-5-5--2--x-0-x-2-22-2222-|-7-5-7--2-x-0-x-2-22-2222-|
E|------------0--x-2-x-3-33-3333-|--------0-x-2-x-3-33-3333-|
   
                Em  F#    G               Em   D/F#  G
  "You know I'm not in the clear, you are not in the clear. Don't you go...

e|--0-0-0-0-0-00-0000---|
B|--1-1-1-1-1-11-1111---|
G|--2-2-2-0-0-00-0000---|
D|--2-2-2-0-2-22-2222---|
A|--0-0-0-2-3-33-3333---|
E|----------------------|

  Am          C/B   C
 ...count me out now, dear...In the clear..."

OUTRO

e|---------------------------------|---------------------------------|
B|--8--7--8/10--10/12--12-12-12----|--8--7---------------------------|
G|---------------------------------|--------7--7-7--7-7-7------------|
D|---------------------------------|---------------------------------|
A|---------------------------------|---------------------------12\\\-|
E|---------------------------------|----------------------///12------|

e|---------------------------------|---------------------------------|
B|--8--7--8/10--10/12--12-12-12----|--8--7---------------------------|
G|---------------------------------|--------7--7-7--7-7-7------------|
D|---------------------------------|---------------------------------|
A|---------------------------------|---------------------------------|
E|---------------------------------|---------------------------------|


7) Subterranean (chords only)

Intro    F#m7   |Am     |Em     |Gm        ||

Chorus
F#m7                 Am             
Nothing left within, I've been mined  
Em                   Gm
Hell and back again, subterranean.
F#m7                  Am            
I've been digging in down inside 
Em                  Gm
I will start again, subterranean.

      Dmaj9/F#    F    A                D/F#       F        A
But the truth is so unkind; what do you know, how low the sky
        Dmaj9/F#   F    A                D/F#       F     A
Yeah the truth is so unkind; what do you know, how low the sky

Interlude   (A)     |A6      |A      |A6     ||x2

Verse 1
 A                    A6       Amaj7                  A6
You might think you know me but I know damn well you don't
   Em      D       A        Asus A
Oh no, oh no, you don't
     A                  A6        Amaj7                  A6
And you might think you own me but I know damn well you don't
   Em      D       A      Asus A
Oh no, oh no, you don't
 Am       G           D        Am 
Bury my heart, can I go this alone?
    G      D       Am      Asus  Am
Oh no, oh no, you don't
 Am          G    D           Am
Poison the sound god in the stone
    G      D       A     Asus A 
Oh no, oh no, you don't


Chorus
F#m7                 Am             
Nothing left within, I've been mined  
Em                   Gm
Hell and back again, subterranean.
F#m7                  Am            
I've been digging in down inside 
Em                  Gm
I will start again, subterranean.

      Dmaj9/F#    F    A                D/F#       F     A
But the truth is so unkind; what do you know, how low the sky

Interlude   (A)     |A6     |A     |A6     ||

Verse 2
 A                  A6        Amaj7                  A6
You might think you owe me but I know damn well you don't
   Em      D       A       Asus  A
Oh no, oh no, you don't
A                  A6        Amaj7                  A6
I might think you love me but I know damn well you don't
   Em      D       A       Asus  A
Oh no, oh no, you don't
  Am            G                 D         Am 
Bring all your lies; leave them deep in the dirt
    G      D       Am      Asus  Am
Oh no, oh no, you don't
 Am          G             D          Am 
Pull down my eyes; lay me deep in the earth
    G      D       A      Asus  A 
Oh no, oh no, you don't


Chorus
F#m7                 Am             
Nothing left within, I've been mined  
Em                   Gm
Hell and back again, subterranean.
F#m7                  Am            
I've been digging in down inside 
Em                  Gm
I will start again, subterranean.

Outro     F#m7  |Am   |Em    |Gm        ||x4 and fade


8) I am a River

(0:11) Intro
e|---0-----0-----0-----0-----0-----0-----0-----0-----0-----0-----0-----0-----0-----0---|
B|-----0-----0-----0-----0-----0-----0-----0-----0-----0-----0-----0-----0-----0-----0-|
G|-6-----4-----6-----8-----4-----6-----2-----1-----2-----4-----6-----8-----9-----8-----|
D|-------------------------------------------------------------------------------------|
A|-------------------------------------------------------------------------------------|
E|-------------------------------------------------------------------------------------|

e|---0-----0-----0------0-----0-----0---|
B|-----0-----0-----0------0-----0-----0-|
G|-6-----8-----9-----11-----8-----9-----|
D|--------------------------------------|
A|--------------------------------------|
E|--------------------------------------|

e|---0-----0-----0-----0-----0-----0-----0-----0-----0-----0-----0-----0---|
B|-----0-----0-----0-----0-----0-----0-----0-----0-----0-----0-----0-----0-|
G|-6-----4-----6-----8-----2-----1-----2-----4-----6-----8-----9-----8-----|
D|-------------------------------------------------------------------------|
A|-------------------------------------------------------------------------|
E|-------------------------------------------------------------------------|

e|---0-----0-----0------0-----0-----0---|
B|-----0-----0-----0------0-----0-----0-|
G|-6-----8-----9-----11-----8-----9-----|
D|--------------------------------------|
A|--------------------------------------|
E|--------------------------------------|

e|---0-----0-----0-----0-----0-----0-----0-----0-----0-----0-----0-----0---|
B|-----0-----0-----0-----0-----0-----0-----0-----0-----0-----0-----0-----0-|
G|-6-----4-----6-----8-----4-----2-----1-----2-----4-----6-----8-----9-----|
D|-------------------------------------------------------------------------|
A|-------------------------------------------------------------------------|
E|-------------------------------------------------------------------------| 
e|----0------0------0-----0-----0-----0---|
B|------0------0------0-----0-----0-----0-|
G|-11-----13-----11-----9-----8-----9-----|
D|----------------------------------------|
A|----------------------------------------|
E|----------------------------------------|

e|---0-----0-----0-----0-----0-----0-----0-----0-----0-----0-----0-----0-----0-----0------0-----0------0---|
B|-----0-----0-----0-----0-----0-----0-----0-----0-----0-----0-----0-----0-----0-----0------0-----0------0-|
G|-6-----8-----4-----6-----8-----6-----8-----9-----8-----6-----4-----6-----8-----9-----11-----9-----11-----|
D|---------------------------------------------------------------------------------------------------------|
A|---------------------------------------------------------------------------------------------------------|
E|---------------------------------------------------------------------------------------------------------|

(0:52) Gtr 1
e|----0------0------0------0------0------0------0------0------0------0------0------0------0------0------0---|
B|------0------0------0------0------0------0------0------0------0------0------0------0------0------0------0-|
G|-13-----13-----13-----13-----13-----13-----13-----13-----13-----13-----13-----13-----13-----13-----13-----|
D|----------------------------------------------------------------------------------------------------------|
A|----------------------------------------------------------------------------------------------------------|
E|----------------------------------------------------------------------------------------------------------|

(0:58) Gtr 2
e|---------------------------------|
B|-9-9-9-9-9-9-9-9-9-9-9-9-9-9-9-9-|
G|-9-9-9-9-9-9-9-9-9-9-9-9-9-9-9-9-|
D|---------------------------------|
A|---------------------------------|
E|---------------------------------|

(1:03) Verse 1

Bass
G|-----------------------------------------|
D|-----------------------------------------|
A|-7----------7----------7-----------------|
E|---7-5--------7-5--------7-5----4-5-7--0-|

Gtr 1
e|-0---0---0---0---0---0---0---0---|
B|-4h5-4h5-4h5-4h5-4h5-4h5-4h5-4h5-|
G|---------------------------------|
D|---------------------------------|
A|---------------------------------|
E|---------------------------------|

Gtr 2
e|----------------------------|
B|----------------------------|
G|-9s4s2---9s6---8--4s8-9--4--|
D|----------------------------|
A|----------------------------|
E|----------------------------|

Pre-Chorus
PM * * * * * * * * * * * * 
e|---------------------------|
B|---------------------------|
G|-4-4-4-4-4-4-4-4-4-4-4-4-4-|
D|-4-4-4-4-4-4-4-4-4-4-4-4-4-|
A|-2-2-2-2-2-2-2-2-2-2-2-2-2-|
E|---------------------------|

Verse 2
Gtr 1
e|-0---0---0---0---0---0---0---0---|
B|-4h5-4h5-4h5-4h5-4h5-4h5-4h5-4h5-|
G|---------------------------------|
D|---------------------------------|
A|---------------------------------|
E|---------------------------------|

Gtr 2
e|-3h4----------3h4----------3h4----------------|
B|-----4-2----------4-2----------4-2----0-2/4---|
G|--------------------------------------------1-|
D|----------------------------------------------|
A|----------------------------------------------|
E|----------------------------------------------|

Pre-Chorus 2

Gtr 1
PM * * * * * * * * * * * * 
e|---------------------------|
B|---------------------------|
G|-4-4-4-4-4-4-4-4-4-4-4-4-4-|
D|-4-4-4-4-4-4-4-4-4-4-4-4-4-|
A|-2-2-2-2-2-2-2-2-2-2-2-2-2-|
E|---------------------------|

PM  * * * * * * * * * * * * 
e|---------------------------|
B|---------------------------|
G|-4-4-4-4-4-4-4-4-4-4-4-4-4-|
D|-4-4-4-4-4-4-4-4-4-4-4-4-4-|
A|-2-2-2-2-2-2-2-2-2-2-2-2-2-|
E|---------------------------|

Gtr 2
e|------------------------------|
B|------------------------------|
G|-8-8-8-8-8-9-9-11-11-11-11-11-|
D|------------------------------|
A|-6-6-6-6-6-7-7-9--9--9--9--9--|
E|------------------------------|

Chorus

Gtr 1
e|-0-0-0-0-0-0-0-0-------------------------------------------------|
B|-2-2-2-2-2-2-2-2-0-0-0-0-0-0-0-0-4-4-4-4-4-4-4-4-0-0-0-0-0-0-0-0-|
G|-2-2-2-2-2-2-2-2-1-1-1-1-1-1-1-1-4-4-4-4-4-4-4-4-1-1-1-1-1-1-1-1-|
D|-2-2-2-2-2-2-2-2-2-2-2-2-2-2-2-2-4-4-4-4-4-4-4-4-2-2-2-2-2-2-2-2-|
A|-0-0-0-0-0-0-0-0-2-2-2-2-2-2-2-2-2-2-2-2-2-2-2-2-2-2-2-2-2-2-2-2-|
E|-----------------0-0-0-0-0-0-0-0-----------------0-0-0-0-0-0-0-0-|

e|-0-0-0-0-0-0-0-0-------------------------------------------------|
B|-2-2-2-2-2-2-2-2-0-0-0-0-0-0-0-0-4-4-4-4-4-4-4-4-4-4-4-4-4-4-4-4-|
G|-2-2-2-2-2-2-2-2-1-1-1-1-1-1-1-1-4-4-4-4-4-4-4-4-4-4-4-4-4-4-4-4-|
D|-2-2-2-2-2-2-2-2-2-2-2-2-2-2-2-2-4-4-4-4-4-4-4-4-4-4-4-4-4-4-4-4-|
A|-0-0-0-0-0-0-0-0-2-2-2-2-2-2-2-2-2-2-2-2-2-2-2-2-2-2-2-2-2-2-2-2-|
E|-----------------0-0-0-0-0-0-0-0---------------------------------|

e|---------------------------|
B|---------------------------|
G|-4-4-4-4-4-4-4-4-4-4-4-4-4-|
D|-4-4-4-4-4-4-4-4-4-4-4-4-4-|
A|-2-2-2-2-2-2-2-2-2-2-2-2-2-|
E|---------------------------|

Gtr 2
e|----------------------------------------------------|
B|----------------------------------------------------|
G|-8-8-8-8-8-8-8-9-9-9-9-9-9-9-11-11-11-11-11-11-11---|
D|----------------------------------------------------|
A|-6-6-6-6-6-6-6-7-7-7-7-7-7-7-9--9--9--9--9--9--9----|
E|----------------------------------------------------|

Gtr 1
e|-0---0---0--0--0--0-0-0-0-0--0---0---0--0--0--0--0-0-|
B|-12--12--7--7--9--9-9-9-9-9--12--12--7--7--9--9b-9-9-|
G|-----------------------------------------------------|
D|-----------------------------------------------------|
A|-----------------------------------------------------|
E|-----------------------------------------------------|

e|-0---0---0---0---0---0---0---0---0---0---0---0---0---0---0---0---|
B|-4h5-4h5-4h5-4h5-4h5-4h5-4h5-4h5-4h5-4h5-4h5-4h5-4h5-4h5-4h5-4h5-|
G|-----------------------------------------------------------------|
D|-----------------------------------------------------------------|
A|-----------------------------------------------------------------|
E|-----------------------------------------------------------------|

Breakdown
e|----------------------------------------------------------------------|
B|----------------------------------------------------------------------|
G|-8-9-6-6-6-6-6-6-6--8-9-6-6-6-6-6-6--8-9-6-6-6-4-6-8-4--4-4-4-4-4-4-4-|
D|----------------------------------------------------------------------|
A|-6-7-4-4-4-4-4-4-4--6-7-4-4-4-4-4-4--6-7-4-4-4-2-4-6-2--2-2-2-2-2-2-2-|
E|----------------------------------------------------------------------|

Solo

Gtr 1
e|-----------------------------------------------------------------|
B|-----------------------------------------------------------------|
G|-----------------------------------------------------------------|
D|-2-2-2-2-2-2-2-2-4-4-4-4-4-4-4-4-6-6-6-6-6-6-6-6-7-7-7-7-7-7-7-7-|
A|-2-2-2-2-2-2-2-2-4-4-4-4-4-4-4-4-6-6-6-6-6-6-6-6-7-7-7-7-7-7-7-7-|
E|-0-0-0-0-0-0-0-0-2-2-2-2-2-2-2-2-4-4-4-4-4-4-4-4-5-5-5-5-5-5-5-5-|

e|-----------------------------------------|
B|-----------------------------------------|
G|-----------------------------------------|
D|-11-11-11-11-11-11-11-11-7-7-7-7-7-9-9-9-|
A|-11-11-11-11-11-11-11-11-7-7-7-7-7-9-9-9-|
E|-9--9--9--9--9--9--9--9--5-5-5-5-5-7-7-7-|

Gtr 2
e|-0-0-0-0-0-0-0-|
B|-4h5-5-5-4-2p0-|
G|---------------|
D|---------------|
A|---------------|
E|---------------|

e|-0--0--0-0-0--0-0-0-0-0--0--0--0-0-0--0-0-0-0-0-0-0-0-0-0-0-0-0-0-0-0-0-0-0-0-0-|
B|-12-12-7-7-9--9-9-9-9-9--12-12-7-7-9--9-9-9-9-9-4-4-4-4-4-4-4-4-2-2-2-2-2-2-2-2-|
G|--------------------------------------------------------------------------------|
D|--------------------------------------------------------------------------------|
A|--------------------------------------------------------------------------------|
E|--------------------------------------------------------------------------------|
Добавлено: 26.06.2015
Другие материалы по этой песне:
  • Аккорды и текст

Страница создана 26.06.2015
http://primanota.ru/foo-fighters/sonic-highways-album-chords.htm
Привет, Гость.
Предлагаем пройти революционный курс по гитаре.
Подарок от PrimaNota.Ru, забирай!