PrimaNota.ru - самый крупный в мире бесплатный архив песенных текстов, аккордов, табулатур и нот


Foo Fighters - Empty Handed - таба, видео

Регистрация Запомнить меня
Войти через:  Facebook Google Twitter Vk Yandex Mail.ru

Foo Fighters - Empty Handed - таба, видео

Печатать
Просмотров: 174
-------------------------------------------------------------------------------
                             Empty Handed - Foo Fighters
-------------------------------------------------------------------------------
Tabbed by: Everlong729
E-mail: caufmanc19@Gmail.com

Tuning: Drop D

   Here's a new (old) song from the Record Store Day release

   I'll just do the each little section. It's a pretty
   basic song structure so you should be able to piece it together.

Intro/verse:

e|-------------------------------------------------|
B|-------------------------------------------------|
G|-------------------------------------------------|x2
D|-10-10-10-11-10-11-10~~10-10-10-11-10-11-10~~----|
A|-10-10-10-11-10-11-10~~10-10-10-11-10-11-10~~----|
D|-10-10-10-11-10-11-10~~10-10-10-11-10-11-10~~----|

e|----------------------------------------------------------------------|
B|----------------------------------------------------------------------|
G|----------------------------------------------------------------------|x2
D|-7-7-7-7-7-7-7-7-7-7-7-7-7-7-7-7---7-7-7-7-7-7-7-7-7-7-7-7-7-7-7-7----|
A|-9-9-9-7-7-7-9-9-9-7-7-7-9-7-9-7---9-9-9-7-7-7-9-9-9-7-7-7-9-7-9-7----|
D|-7-7-7-7-7-7-7-7-7-7-7-7-7-7-7-7---7-7-7-7-7-7-7-7-7-7-7-7-7-7-7-7----|

Chorus: 

e|--------------------------------------------------------|
B|--------------------------------------------------------|
G|--------------------------------------------------------|
D|-5-5-5-5-7-7-7---------6-6-6-6-8-8-8-6h8-6h8-6h8-6h8----|
A|-5-5-5-5-7-7-7--x2-----6-6-6-6-8-8-8-6h8-6h8-6h8-6h8----|
D|-5-5-5-5-7-7-7---------6-6-6-6-8-8-8-6h8-6h8-6h8-6h8----|

End on: 

e|-------|
B|-------|
G|-------|
D|--10\--|
A|--10\--|
D|--10\--|

That's pretty much the whole song. This is my first tab so if 
you have any corrections feel free to correct them.

************************************

| /   slide up
| \   slide down
| h   hammer-on
| p   pull-off
| ~   vibrato
| +   harmonic
| x   Mute note
| b   Bend
| pb  Pre-bend
| br  Bend release
| pbr Pre-bend release
| brb Bend release bend

************************************
Добавлено: 14.09.2015
Другие материалы по этой песне:
  • Аккорды и текст

Страница создана 14.09.2015
http://primanota.ru/foo-fighters/empty-handed-chords.htm
Привет, Гость.
Предлагаем пройти революционный курс по гитаре.
Подарок от PrimaNota.Ru, забирай!