PrimaNota.ru - самый крупный в мире бесплатный архив песенных текстов, аккордов, табулатур и нот


Foo Fighters - Hooker On The Street - таба, видео

Регистрация Запомнить меня
Войти через:  Facebook Google Twitter Vk Yandex Mail.ru

Foo Fighters - Hooker On The Street - таба, видео

Печатать
Просмотров: 175
1. MAIN RIFF/VERSE (play 12 times)

e|------------------------------|
B|------------------------------|
G|------------------------------|
D|------9-----------------------|
A|--7/9---7---------------------|
E|----------7/9-9-9-------------|


2. CHORUS (play 2 times)

e|---------------------------------|------------------|  
B|---------------------------------|------------------|  
G|------------------------------1--|------------------|  
D|--44--4---4--------4444-4444--2--|------9-----------|  
A|--44--4---4--------4444-4444--2--|--7/9---7---------|  
E|--22--2---2--------2222-2222--0--|----------7/9-9-9-|   

       Are these problems ever going away?    ^(x2)^


3. BRIDGE

e|--------------------------|  
B|--------------------------|  
G|--------------------------|  
D|--7777-7777-9999-999------|  
A|--7777-7777-9999-999------|  
E|--5555-5555-7777-777------|   


4. MAIN RIFF (play 6 times)
5. CHORUS (play 2 times)
6. BRIDGE


7. OUTRO (play 8 times)

e|--------------------------|  
B|--------------------------|  
G|--------------------------|  
D|--------------------------|  
A|-----7-------------8/9----|  
E|-7/9---9--9/8--6---6/7----| 


8. MAIN RIFF (play 6 times)
9. CHORUS (play 2 times)
10. BRIDGE
11. OUTRO (play 8 times)
12. MAIN RIFF (play 2 times)

 
Добавлено: 14.09.2015
Другие материалы по этой песне:
  • Аккорды и текст

Страница создана 14.09.2015
http://primanota.ru/foo-fighters/hooker-on-street-chords.htm
Привет, Гость.
Предлагаем пройти революционный курс по гитаре.
Подарок от PrimaNota.Ru, забирай!