PrimaNota.ru - самый крупный в мире бесплатный архив песенных текстов, аккордов, табулатур и нот


Foo Fighters - The Neverending Sigh - таба, бас-таба, видео

Регистрация Запомнить меня
Войти через:  Facebook Google Twitter Vk Yandex Mail.ru

Foo Fighters - The Neverending Sigh - таба, бас-таба, видео

Печатать
Просмотров: 85
Авторы: Pat Smear, Dave Grohl, Chris Shiflett, Nate Mendel, Taylor Hawkins, Rami Jaffee

Not tabbed: Very beginning and overdubs.

INTRO 6x
VERSE 2x
PRE CHORUS
CHORUS
INTRO 2x
VERSE 2x - SECOND TIME NO PALM MUTE
PRE CHORUS - LAST PART ONLY
CHORUS - 1.75x
POST CHORUS
BRIDGE




*INTRO*
e|---------------------------------|
b|---------------------------------|
G|-------------------------------0*| LET NOTE RING INTO NEXT SECTION
D|----------------------------2~---|
A|---------------------------------|
E|-3/6--6-6-6\3--3-3-3p0--0--------|

e|------------------------------------|
b|------------------------------------|
G|------------------------------------|
D|-----------------------2h3p2p0------|
A|-------------------------------1p0--|
E|-3/6--6-6-6\3--3-3-0-0--------------|



*VERSE* 
e|-----------------------------------------|
b|-----------------------------------------|
G|-------------------------0-0-0-0---------|3x
D|-------------------------2-2-2-2---------|
A|---------1-1-1-1-3-3-3-3-----------------|
E|-3-3-3-3---------------------------------|
 pm.......................

e|-----------------------------------------|
b|-----------------------------------------|
G|-----------------------------------------|
D|---------------------2h3ph2-0------------|
A|---------1-1-1-1-3-3----------1p0--------|
E|-3-3-3-3---------------------------------|
 pm...................



*PRECHORUS*
e|-----------------------------------------------------------|
b|-----------------------------------------------------------|
G|-5--5--5-5-5--5-5-5-5--5-5--5-5-5--5-5-5--5----------------|
D|-5--5--5-5-5--5-5-5-5--5-5--5-5-5--5-5-5--5--2h3p2---------|
A|-3--3--3-3-3--3-3-3-3--3-3--3-3-3--3-3-3--3--------1p0-----|
E|-----------------------------------------------------------|

e|-----------------------------------------|
b|-----------------------------------------|
G|-------------------------0-0-0-0---------|
D|-------------------------2-2-2-2---------|
A|---------1-1-1-1-3-3-3-3-----------------|
E|-3-3-3-3---------------------------------|


e|-----------------------------------------|
b|-----------------------------------------|
G|-----------------------------------------|
D|---------------------2h3ph2-0------------|
A|---------1-1-1-1-3-3----------1p0--------|
E|-3-3-3-3---------------------------------|

e|-----------------------------------------|
b|-----------------------------------------|
G|-5--5--5-5-5--5-5-5-5--5-5--5-7-3-3------| *LAST PART
D|-5--5--5-5-5--5-5-5-5--5-5--5-7-3-3------|
A|-3--3--3-3-3--3-3-3-3--3-3--3-5-1-1------|
E|-----------------------------------------|



*CHORUS*
e|--------------------------------------------------|
b|--------------------------------------------------|
G|--------------------------------------------------|
D|------------8-8-----------------------------------|
A|-5-5-----5--6-6-8/10-8--8-8------8--3-3-3/5--3p0--|
E|-3-3-5/7----------------6-6-8/10----1-1-----------|

e|--------------------------------------------------|
b|--------------------------------------------------|
G|--------------------------------------------------|
D|------------8-8-----------------------------------|
A|-5-5-----5--6-6-8/10-8--8-8-8-10--10-8-10-8-------|
E|-3-3-5/7----------------6-6-6-8---8--6-8--6-------|

e|--------------------------------------------------|
b|--------------------------------------------------|
G|--------------------------------------------------|
D|------------8-8-----------------------------------|
A|-5-5-----5--6-6-8/10-8--8-8------8--3-3-3/5--3p0--|
E|-3-3-5/7----------------6-6-8/10----1-1-----------|

e|--------------------------------------------------|
b|--------------------------------------------------|
G|--------------------------------------------------|
D|------------8-8-----------------------------------|
A|-5-5-----5--6-6-8/10-8--8-8-8-10//----------------|
E|-3-3-5/7----------------6-6-6-8-//----------------|

 

*POST CHORUS*
e|----------------------------------------------------------|
b|----------------------------------------------------------|
G|------7-----------7-----------7------11-11--10------------|
D|---8-----8-----6-----6-----8-----8------------------------|
A|-6-----------------------6-----------9--9---8-------------|
E|-------------8--------------------------------------------|


*BRIDGE*
e|----------------------------------------------------------|
b|----------------------------------------------------------|
G|----------------------------------------------------------|4x
D|------------8-8---------5-5-------------------------------|
A|-5-5-----5--6-6-8/10-8--3-3-5/7-5~--5-3-5/7\5p3-2---------|
E|-3-3-3/5--------------------------------------------------|


*END*
e|----------------------------------------------------------|
b|----------------------------------------------------------|
G|----------------------------------------------------------|
D|-------8-8------------------------------------------------|
A|-5-5---6-6---8-8------8-3-3-3/5-3p0-----------------------|
E|-3-3---------6-6-8/10---1-1-------------------------------|


e|---------------------------------------------|
b|---------------------------------------------|
G|---------------------------------------------|
D|-------8-8-----------------------------------|
A|-5-5---6-6---8-8-8-10--10-8-10-8-------------|
E|-3-3---------6-6-6-8---8--6-8--6-------------|

e|--------------------------------------------------|
b|--------------------------------------------------|
G|--------------------------------------------------|
D|------------8-8-----------------------------------|
A|-5-5-----5--6-6-8/10-8--8-8------8--3-3-3/5--3p0--|
E|-3-3-5/7----------------6-6-8/10----1-1-----------|

e|----------------------------------------------------------|
b|----------------------------------------------------------|
G|------7-----------7-----------7------11-11--10------------|
D|---8-----8-----6-----6-----8-----8------------------------|
A|-6-----------------------6-----------9--9---8-------------|
E|-------------8--------------------------------------------|

e|----------------------------------------------------------|
b|----------------------------------------------------------|
G|----------------------------------------------------------|REPEAT TO FADE OUT
D|------------8-8---------5-5-------------------------------|
A|-5-5-----5--6-6-8/10-8--3-3-5/7-5--5-3-5/7\5p3-2----------|
E|-3-3-3/5--------------------------------------------------|



*SOLO* - ONLY UNTIL FADE OUT
e|--------------15~-----------------------------------------|
b|--------------------18-15-18~---15-18~--15\13/15----------|
G|-------15-17b---------------------------------------------|
D|-15-17----------------------------------------------------|
A|----------------------------------------------------------|
E|----------------------------------------------------------|

e|----------------------------------------------------------|
b|----------------------------------------------------------|
G|-17\15/17--15\12/15b--------------------------------------|
D|---------------------17\15h17----15-----------------------|
A|------------------------------17----\15-13-15-15br--------|
E|----------------------------------------------------------|


LEGEND
/  - Slide up
\  - Slide Down
~  - Vibrato
b  - Bend up
br - Bend and release
h  - Hammer-on
p  - Pull-off
 
Добавлено: 16.04.2016
Другие материалы по этой песне:
  • Аккорды и текст

Страница создана 09.04.2016
http://primanota.ru/foo-fighters/neverending-sigh-chords.htm
Привет, Гость.
Предлагаем пройти революционный курс по гитаре.
Подарок от PrimaNota.Ru, забирай!