PrimaNota.ru - самый крупный в мире бесплатный архив песенных текстов, аккордов, табулатур и нот


Foo Fighters - Nothing Set In Stone - таба, видео

Регистрация Запомнить меня
Войти через:  Facebook Google Twitter Vk Yandex Mail.ru

Foo Fighters - Nothing Set In Stone - таба, видео

Печатать
Просмотров: 65
Уроки эстрадного вокала в Санкт-Петербурге
This is the tab to the teaser track the Foo Fighters posted recently for the song Nothing Set In Stone.


Riff A
e|---------------------------------
b|---------------------------------
G|-------------------------------0* Let ring into next section
D|----------------------------2~---
A|---------------------------------
E|-3/6--6-6-6\3--3-3-3p0--0--------

Riff B
e|------------------------------------
b|------------------------------------
G|------------------------------------
D|-----------------------2h3p2p0------
A|-------------------------------1p0--
E|-3/6--6-6-6\3--3-3-0-0--------------

Repeat
Добавлено: 09.04.2016
Вам также может быть интересно:
Другие материалы по этой песне:
  • Аккорды и текст

Страница создана 09.04.2016
http://primanota.ru/foo-fighters/nothing-set-in-stone-chords.htm
Привет, Гость.
Предлагаем пройти революционный курс по гитаре.
Подарок от PrimaNota.Ru, забирай!