PrimaNota.ru - самый крупный в мире бесплатный архив песенных текстов, аккордов, табулатур и нот


Foo Fighters - Win Or Lose - бас-таба, видео

Регистрация Запомнить меня
Войти через:  Facebook Google Twitter Vk Yandex Mail.ru

Foo Fighters - Win Or Lose - бас-таба, видео

Печатать
Просмотров: 125
Уроки эстрадного вокала в Санкт-Петербурге
-------------------------------------------------------------------------------
                             Win or Lose - Foo Fighters
-------------------------------------------------------------------------------
Tabbed by: robandrews95

Tuning: EADG

 Intro
G|---------------------------------------------------------------------------|
D|---------------------------------------------------------------------------|
A|---------------------------------------------------------------------------|
E|-0-0-0---------0-0-0---------0-0-0---------0-0-0-4-5-5-5-4-----------------|

 Main Riff
G|---------------------------------------------------------------------------|
D|---------------------------------------------------------------------------|
A|-------57575---------------------------------------------------------------|
E|-0-0-0------7-0-0-0-4-5-5-5-4----------------------------------------------| (x3 USUALLY BUT CAN BE x2 
                                                                                  watch out for this)  
G|---------------------------------------------------------------------------|
D|---------------------------------------------------------------------------|
A|-5-5-5-5-5-5-5-5-----------------------------------------------------------|
E|-----------------7-7-7-7-7-7-7-7-------------------------------------------|

 Chorus
G|---------------------------------------------------------------------------|
D|---------------------------------------------------------------------------|
A|-----------------2-2-2-2-2-2-2-2-------------------0-0-0-0-0-0-0-0-0-------|
E|-0-0-0-0-0-0-0-0------------------0-0-0-0-0-0-0-0-0------------------------| 

G|---------------------------------------------------------------------------|
D|---------------------------------------------------------------------------|
A|----------------2-2-2-2-2-2-2-2-----------------5-5-5-5-5-5-5-5------------|
E|-0-0-0-0-0-0-0-0----------------7-7-7-7-7-7-7-7----------------------------|

 Middle bit
G|---------------------------------------------------------------------------|
D|---------------------------------------------------------------------------|
A|-5---7----5---5777577757775777-5---7---5-----------------------------------|
E|---5---7----5--------------------5---7---5---------------------------------|
 
 Lsst Verse
G|---------------------------------------------------------------------------|
D|---------------------------------------------------------------------------|
A|---------------------------------------------------------------------------|
E|0-0-0-----0-0-0-----0-0-0-----0-0-0-----0-0-0-----0-0-0-----0-0-0-----0-0-0|

Be careful with the order if the song. Also the actual tab is more complex than this, but this works 
if you just want to play along and sound in  tune :)

The order goes:

Intro
Main riff <--- watch out for the timings of the second part of the main riff for this part
Chorus
Main riff
Chorus
Middle part
Main riff
Last verse
Chorus
 
Thanks :)

| /  slide up
| \  slide down
| h  hammer-on
| p  pull-off
| ~  vibrato
| +  harmonic
| x  Mute note
===============================================================================
Добавлено: 09.04.2016
Другие материалы по этой песне:
  • Аккорды и текст

Страница создана 09.04.2016
http://primanota.ru/foo-fighters/win-or-lose-chords.htm
Привет, Гость.
Предлагаем пройти революционный курс по гитаре.
Подарок от PrimaNota.Ru, забирай!