PrimaNota.ru - самый крупный в мире бесплатный архив песенных текстов, аккордов, табулатур и нот


Firewind - Skg - таба, видео

Регистрация Запомнить меня
Войти через:  Facebook Google Twitter Vk Yandex Mail.ru

Firewind - Skg - таба, видео

Печатать
Просмотров: 55
D Standard Tuning/ 1 step down (D G C F A D)

intro
       S S S  S S S  S S S  S S S S S  S S  3x
D||---12-0-0-13-0-0-10-0-0-12-0-0-8-0-10-0--||
A||-----------------------------------------||
F||*---------------------------------------*||
C||*---------------------------------------*||
G||-----------------------------------------||
D||-----------------------------------------||


  S S  S S S  S S S  S S S S Q          S S S  S S S  S S S  S S S S S  S S  3x
--7-8------7----------------------||---12-0-0-13-0-0-10-0-0-12-0-0-8-0-10-0--||
------10-9---10-9-6-10-9-6--------||-----------------------------------------||
---------------------------9-7----||*---------------------------------------*||
----------------------------------||*---------------------------------------*||
----------------------------------||-----------------------------------------||
----------------------------------||-----------------------------------------||


  S S  S S S  S S S  S S S S Q          S S S  S S S  S S S  S S S S S  S S  3x
--7-8------7----------------------||---12-0-0-13-0-0-10-0-0-12-0-0-8-0-10-0--||
------10-9---10-9-6-10-9-6--------||-----------------------------------------||
---------------------------9-7----||*---------------------------------------*||
----------------------------------||*---------------------------------------*||
----------------------------------||-----------------------------------------||
----------------------------------||-----------------------------------------||


  S S  S S S  S S S  S S S S Q          S S S  S S S  S S S  S S S S S  S S  3x
--7-8------7----------------------||---12-0-0-13-0-0-10-0-0-12-0-0-8-0-10-0--||
------10-9---10-9-6-10-9-6--------||-----------------------------------------||
---------------------------9-7----||*---------------------------------------*||
----------------------------------||*---------------------------------------*||
----------------------------------||-----------------------------------------||
----------------------------------||-----------------------------------------||


  S S S S S S  S S  S  S  S  S  Q     
--8-5-7-8-7-8-10-8-10-12-10-12-13----|
-------------------------------------|
-------------------------------------|
-------------------------------------|
-------------------------------------|
-------------------------------------|


     S S S  S S S  S S S  S S S S S  S S  3x  S S  S S S  S S S  S S S S Q     
|---12-0-0-13-0-0-10-0-0-12-0-0-8-0-10-0--||--7-8------7----------------------|
|-----------------------------------------||------10-9---10-9-6-10-9-6--------|
|*---------------------------------------*||---------------------------9-7----|
|*---------------------------------------*||----------------------------------|
|-----------------------------------------||----------------------------------|
|-----------------------------------------||----------------------------------|


     S S S  S S S  S S S  S S S S S  S S  3x
|---12-0-0-13-0-0-10-0-0-12-0-0-8-0-10-0--||
|-----------------------------------------||
|*---------------------------------------*||
|*---------------------------------------*||
|-----------------------------------------||
|-----------------------------------------||


  S S S S S S  S S  S  S  S  S  Q     
--8-5-7-8-7-8-10-8-10-12-10-12-13----|
-------------------------------------|
-------------------------------------|
-------------------------------------|
-------------------------------------|
-------------------------------------|


     S S S  S S S  S S S  S S S S S  S S  3x  S S  S S S  S S S  S S S S Q     
|---12-0-0-13-0-0-10-0-0-12-0-0-8-0-10-0--||--7-8------7----------------------|
|-----------------------------------------||------10-9---10-9-6-10-9-6--------|
|*---------------------------------------*||---------------------------9-7----|
|*---------------------------------------*||----------------------------------|
|-----------------------------------------||----------------------------------|
|-----------------------------------------||----------------------------------|


     S S S  S S S  S S S  S S S S S  S S  3x
|---12-0-0-13-0-0-10-0-0-12-0-0-8-0-10-0--||
|-----------------------------------------||
|*---------------------------------------*||
|*---------------------------------------*||
|-----------------------------------------||
|-----------------------------------------||


  S S S S S S  S S  S  S  S  S  Q     
--8-5-7-8-7-8-10-8-10-12-10-12-13----|
-------------------------------------|
-------------------------------------|
-------------------------------------|
-------------------------------------|
-------------------------------------|

Breakdown

    PM PM PM PM PM PM PM PM PM PM PM PM PM PM PM PM PM PM PM PM PM PM PM PM PM P
    S  S  S  S  S  S  S  S  S  S  S  S  S  S  S  S  S  S  S  S  S  S  S  S  S  S
|-------------------------------------------------------------------------------
|-------------------------------------------------------------------------------
|*--0--0--2--0--0--2--0--0--2--0--5--0--0--5--0--0--5--0--2--0--0--2--0--0--2--0
|*------------------------------------------------------------------------------
|-------------------------------------------------------------------------------
|-------------------------------------------------------------------------------


  T T E  T T E  T T E   T  T T E   T S S  S          
--------------------------------------------|-------|
--------------------------------------------|-------|
--0-2-4--0-5-7--0-8-9--12-10-9-7------------|-------|
----------------------------------10-9-7----|-------|
-----------------------------------------10-|-------|
--------------------------------------------|-------|


Final

    S  S  S S  S  S S  S  S S  S  S S  S  S S  
|---0-12-19-0-12-19-0-12-19-0-12-19-0-12-19-0-|
|---------------------------------------------|
|*--------------------------------------------|
|*--------------------------------------------|
|---------------------------------------------|
|---------------------------------------------|


  S  S  S S  S  S S  S  S S  S  S S  S  S S  
--0-13-20-0-13-20-0-13-20-0-13-20-0-13-20-0-|
--------------------------------------------|
--------------------------------------------|
--------------------------------------------|
--------------------------------------------|
--------------------------------------------|


  S  S  S S  S  S S  S  S S  S  S S  S  S S  
--0-10-17-0-10-17-0-10-17-0-10-17-0-10-17-0-|
--------------------------------------------|
--------------------------------------------|
--------------------------------------------|
--------------------------------------------|
--------------------------------------------|


  S  S  S S  S  S S  S  S S  S  S S  S  S S    
--0-12-19-0-12-19-0-12-19-0-12-19-0-12-19-0--||
---------------------------------------------||
--------------------------------------------*||
--------------------------------------------*||
---------------------------------------------||
---------------------------------------------||




Duration Legend
---------------
W - whole
H - half
Q - quarter
E - 8th
S - 16th
T - 32nd
X - 64th
. - note dotted
|-n-|  - n-tuplets


Tablature Legend
----------------
L - tied note
x - dead note
g - grace note
(n) - ghost note
> - accentuded note
NH - natural harmonic
AH - artificial harmonic
TH - tapped harmonic
SH - semi harmonic
PH - pitch harmonic
h - hammer on
p - pull off
b - bend
br - bendRelease
pb - preBend
pbr - preBendRelease
brb - bendReleaseBend
\n/ - tremolo bar dip
\n - tremolo bar dive
-/n - tremolo bar Release up
/n\ - tremolo bar inverted dip
/n - tremolo bar return
-\n - tremolo bar Release down
S - shift slide
s - legato slide
/ -  slide into from below or out of upwards
\ -  slide into from above or out of downwards
~ - vibrato
W - wide vibrato
tr - trill
TP - tremolo picking
T - tapping
S - slap
P - pop
< - fade in
^ - brush up
v - brush down
Добавлено: 15.10.2015
Другие материалы по этой песне:

Страница создана 30.11.2014
http://primanota.ru/firewind/skg-chords.htm
Привет, Гость.
Предлагаем пройти революционный курс по гитаре.
Подарок от PrimaNota.Ru, забирай!