PrimaNota.ru - самый крупный в мире бесплатный архив песенных текстов, аккордов, табулатур и нот


Finch - Post Script - аккорды и текст, таба, бас-таба, видео

Регистрация Запомнить меня
Войти через:  Facebook Google Twitter Vk Yandex Mail.ru

Finch - Post Script - аккорды и текст, таба, бас-таба, видео

Печатать
Просмотров: 262
Post Script
Finch
Finch
Post Script
What It Is To Burn
2002
Submitted by: paramore_fans@yahoo.com

Key: C#

Tuning: Standard EADGBe

Chords used:
F# -   244322
C# -   x46664
Bbm -  x13321
G# -   466544
Fm -   133111
C#/F - 143xxx

Intro: C# then F#--C#--Bbm---G#(x2) C#

Guitar 2: repeat many times
e|---------------------------------|
B|-2-2-1-1-----2-2-1-1-----2-2-1-1-|
G|---------1-1---------1-1---------|
D|---------------------------------|
A|---------------------------------|
E|---------------------------------|

Guitar 3: x2
e|-------------|------------------|-------------|
B|-------------|------------------|-------------|
G|-6--6-6--6-6-|-13--13-13--13-13-|-8--8-8--8-8-|
D|-x--x-x--x-x-|--x---x--x---x--x-|-x--x-x--x-x-|
A|-4--4-4--4-4-|-11--11-11--11-11-|-6--6-6--6-6-|
E|-------------|------------------|-------------|
        x2             x5


Verse 1:
F#                C#              Bbm
  I wish it didnt hurt, hurt like this
                       G#
to say these things to you
F#              C#         Bbm      G#
  I'll sacrifice one moment for one truth


Chorus:
Bbm                C#
  If we get through tomorrow
Bbm             Fm-F#-Fm-C#   Fm    F# Fm      C#
  then we'll be fine    (then we'll be fine!!!)
Bbm             C#
  We'll wait for forever and
Bbm                Fm-F#-Fm-C#-Fm-F#-Fm-C#
  see how close we get!!!


Guitar 2: x2 While doing chorus
e|---------|------------|
B|---------|------------|
G|-----6---|----------6-|
D|-3-4---6-|-3--4--3--6-|
A|---------|-3--4--3--4-|
E|---------|-1--2--1----|
      x6         x2


Interlude:
C# then F#--C#--Bbm---G#

Guitar 2: repeat many times
e|---------------------------------|
B|-2-2-1-1-----2-2-1-1-----2-2-1-1-|
G|---------1-1---------1-1---------|
D|---------------------------------|
A|---------------------------------|
E|---------------------------------|

Guitar 3:
e|-------------|------------------|-------------|
B|-------------|------------------|-------------|
G|-6--6-6--6-6-|-13--13-13--13-13-|-8--8-8--8-8-|
D|-x--x-x--x-x-|--x---x--x---x--x-|-x--x-x--x-x-|
A|-4--4-4--4-4-|-11--11-11--11-11-|-6--6-6--6-6-|
E|-------------|------------------|-------------|
        x2             x5


Verse 2:
F#                  C#
  I'ts just another day
         Bbm                G#
One more chance to get this right
F#              C#
  I'll sacrifice forever
Bbm           G#
  please just for tonight


(Repeat Chorus)


C#(hold)


Interlude:

Guitar 1: C#-F#(x2) C#/F-F#-C#

Guitar 2:
        C#                  F#
e|-----------------|-----------------|
B|-----------------|-----------------|
G|---6-----6-----6-|-----------------|
D|-6---6-6---6-6---|---4-----4-----4-|
A|-----------------|-4---4-4---4-4---|
E|-----------------|-----------------|

        C#                  F#              C#/F              F#
e|-----------------|-----------------|-----------------|-----------------|
B|-----------------|-----------------|-----------------|-----------------|
G|---6-----6-----6-|-----------------|---------6-------|---------6-------|
D|-6---6-6---6-6---|---4-----4-----4-|-3---3---------3-|-4---4---------3-|
A|-----------------|-4---4-4---4-4---|---4---4---4-4---|---4---4---4-4---|
E|-----------------|-----------------|-----------------|-----------------|

        C#
e|-----------------|
B|-----------------|
G|---6-----6-----6-|
D|-6---6-6---6-6---|
A|-----------------|
E|-----------------|
         x2


Outro:
             C#  F#   C#/F F#
The worst is over for now
C#                          C#/F(hold) F#(hold)
  Take a breath, now let it out
C#                      C#/F(hold) F#(hold)
  The worst is over for now
C#                          C#/F(hold) F#(hold)
  Take a breath, now let it out
C#                       C#/F(hold) F#(hold) C#/F(hold) F#(hold) end on C#
  The worst is over for now
Добавлено: 28.04.2012
Другие материалы по этой песне:

Страница создана 07.03.2012
http://primanota.ru/finch/post-script-chords.htm
Привет, Гость.
Предлагаем пройти революционный курс по гитаре.
Подарок от PrimaNota.Ru, забирай!