PrimaNota.ru - самый крупный в мире бесплатный архив песенных текстов, аккордов, табулатур и нот


Finch - Stay With Me - аккорды и текст, таба, бас-таба, видео

Регистрация Запомнить меня
Войти через:  Facebook Google Twitter Vk Yandex Mail.ru

Finch - Stay With Me - аккорды и текст, таба, бас-таба, видео

Печатать
Просмотров: 255
Stay With Me
Finch
Artist - Finch
Song - Stay With Me
Album - What it is to Burn
Tabbed By - Kevin O'Brien

Standard Tuning (E A D G B E)

Verse
|---------------------------------------------------------------------
|-----------------1---1-1---1--3--1----------------------1---1-1---1-3
|-----------------2---2-2--------------------------------2---2-2------
|8--8----8--8---------------------------8--8----8--8------------------
|8--8----8--8---------------------------8--8----8--8------------------
|6--6----6--6---------------------------6--6----6--6------------------

|---------------------------------------------------------------------
|-----------------1---1-1---1--3--1----------------------1---1-1---1-3
|-----------------2---2-2--------------------------------2---2-2------
|5--5----5--5---------------------------5--5----5--5------------------
|5--5----5--5---------------------------5--5----5--5------------------
|3--3----3--3---------------------------3--3----3--3------------------

Haven't tabbed out the chorus yet but I will soon. If you have any
corrections to this tab E-mail me at Punksk8er0603@aol.com

     
Добавлено: 04.10.2013
Другие материалы по этой песне:

Страница создана 06.03.2012
http://primanota.ru/finch/stay-with-me-chords.htm
Привет, Гость.
Предлагаем пройти революционный курс по гитаре.
Подарок от PrimaNota.Ru, забирай!