PrimaNota.ru - самый крупный в мире бесплатный архив песенных текстов, аккордов, табулатур и нот


Finch - Bury Me - аккорды и текст, таба, видео

Регистрация Запомнить меня
Войти через:  Facebook Google Twitter Vk Yandex Mail.ru

Finch - Bury Me - аккорды и текст, таба, видео

Печатать
Просмотров: 132
Bury Me
Finch
Artist: Finch
Song: Bury me
Tabbed by 
              [~ Let ring]
   Although this is a really good Finch song, some fans may not be familiar
with this track because it has not appeared on any of their albums yet. But I
have heard many versions of this song and this tab sounds almost perfect:


Intro:
 
E--------------------------------------------------------------------------|
B---9-6-9-6-9--9-6-9-6-9--9-6-9-6-9--9-6-9-6-9--9-6-9-6-9--9-6-9-6---------|
G--------------------------------------------------------------------------|
D--------------------------------------------------------------------------|
A--------------------------------------------------------------------------|
E--------------------------------------------------------------------------|

E--------------------------------------------------------------------------|
B--------------------------------------------------------------------------|
G---8-8-8-8-8-8-8-8--5~----------------------------------------------------|
D--------------------------------------------------------------------------|
A--------------------------------------------------------------------------|
E--------------------------------------------------------------------------|


Part 1 of 2nd Intro:
E--------------------------------------------------------------------------|
B--------------------------------------------------------------------------|
G--------------------------------------11-11-11-11-11-11-11-11-11-11-11-11-|
D-12-12-12-12-12-12-12-12-12-12-12-12--11-11-11-11-11-11-11-11-11-11-11-11-|
A-12-12-12-12-12-12-12-12-12-12-12-12--9--9--9--9--9--9--9--9--9--9--9--9--|
E-10-10-10-10-10-10-10-10-10-10-10-10--------------------------------------|

E--------------------------------------------------------------------------|
B--------------------------------------------------------------------------|
G--6-6-6-6-6-6-6-6-6-6-6-6--8-8-8-8-8--5-5-5-5-----------------------------|
D--6-6-6-6-6-6-6-6-6-6-6-6--8-8-8-8-8--5-5-5-5-----------------------------|
A--4-4-4-4-4-4-4-4-4-4-4-4--6-6-6-6-6--3-3-3-3-----------------------------|
E--------------------------------------------------------------------------|


Part 2 of 2nd Intro:
E------------------------------------------------------------------------|
B------------------------------------------------------------------------|
G------------------------------------------------------------------------|
D--4-4-4-3-----4-4-4-3---4-4-4-3----4-4-4-3----4-4-4-3----4-4-4-3--------|
A---------4-----------4---------4----------4----------4----------4-------|
E------------------------------------------------------------------------|  

E------------------------------------------------------------------------|
B------------------------------------------------------------------------|
G------------------------------------------------------------------------|
D------------------------------------------------------------------------|X2
A---6-6-6-6-6-3-6-6-6----------------------------------------------------|
E------------------------------------------------------------------------|


Verse 1 (It may be played with a slide, but it sounds right both ways):
E-----------------------------------------------------------------------|
B---11~-18~-14~-7~-14~-9~-----------------------------------------------|
G-----------------------------------------------------------------------|X2
D-----------------------------------------------------------------------|
A-----------------------------------------------------------------------|
E-----------------------------------------------------------------------|


Pre-Chorus:
E-----------------------------------------------------------------------|
B-----------------------------------------------------------------------|
G-----------------------------------------------------------------------|
D--8-8-8--6-6-6--4-4-4--6-6-6-6-6---------------------------------------|
A--8-8-8--6-6-6--4-4-4--6-6-6-6-6---------------------------------------|
E--6-6-6--4-4-4--2-2-2--4-4-4-4-4---------------------------------------|


Chorus:
E------------------------------------------------------------------------|
B------------------------------------------------------------------------|
G------------------------------------------------------------------------|
D--4-4-4-3-----4-4-4-3---4-4-4-3----4-4-4-3----4-4-4-3----4-4-4-3--------|
A---------4-----------4---------4----------4----------4----------4-------|
E------------------------------------------------------------------------|  

E------------------------------------------------------------------------|
B------------------------------------------------------------------------|
G------------------------------------------------------------------------|
D------------------------------------------------------------------------|X2
A---6-6-6-6-6-3-6-6-6----------------------------------------------------|
E------------------------------------------------------------------------|

Verse 2 (It may be played with a slide, but it sounds right both ways):
E-----------------------------------------------------------------------|
B---11~-18~-14~-7~-14~-9~-----------------------------------------------|
G-----------------------------------------------------------------------|
D-----------------------------------------------------------------------|
A-----------------------------------------------------------------------|
E-----------------------------------------------------------------------|   
   

Pre-Chorus:
E-----------------------------------------------------------------------|
B-----------------------------------------------------------------------|
G-----------------------------------------------------------------------|
D--8-8-8--6-6-6--4-4-4--6-6-6-6-6---------------------------------------|
A--8-8-8--6-6-6--4-4-4--6-6-6-6-6---------------------------------------|
E--6-6-6--4-4-4--2-2-2--4-4-4-4-4---------------------------------------|


2nd Chorus:
E------------------------------------------------------------------------|
B------------------------------------------------------------------------|
G------------------------------------------------------------------------|
D--4-4-4-3-----4-4-4-3---4-4-4-3----4-4-4-3----4-4-4-3----4-4-4-3--------|
A---------4-----------4---------4----------4----------4----------4-------|
E------------------------------------------------------------------------|  

E------------------------------------------------------------------------|
B------------------------------------------------------------------------|
G------------------------------------------------------------------------|
D------------------------------------------------------------------------|X2
A---6-6-6-6-6-3-6-6-6----------------------------------------------------|
E------------------------------------------------------------------------|


Riff after 2nd Chorus:
E-----------------------------------------------------------------------|
B-----------------------------------------------------------------------|
G-----------------------------------------------------------------------|
D--8-8-8--6-6-6--4-4-4--6-6-6-6-6---------------------------------------|
A--8-8-8--6-6-6--4-4-4--6-6-6-6-6---------------------------------------|
E--6-6-6--4-4-4--2-2-2--4-4-4-4-4---------------------------------------|


Big angry bit:

E--------------------------------------------------------------------------|
B--------------------------------------------------------------------------|
G--------------------------------------------------------------------------|
D--6-6--6-6---8-6-4--6-6-6-6--x-x-x-6-6-x-x-x-6-6--8-6-4--6-6-6-6----------|
A--6-6--6-6---8-6-4--6-6-6-6--x-x-x-6-6-x-x-x-6-6--8-6-4--6-6-6-6----------|
E--4-4--4-4---6-4-2--4-4-4-4--x-x-x-4-4-x-x-x-4-4--6-4-2--4-4-4-4----------|


E--------------------------------------------------------------------------|
B--------------------------------------------------------------------------|
G--------------------------------------------------------------------------|
D-x-x-x-6-6-x-x-x-6-6--8-6-4--6-6-6-6--x-x-x-6-6-x-x-x-6-6--8-6-4--6-6-6-6-|
A-x-x-x-6-6-x-x-x-6-6--8-6-4--6-6-6-6--x-x-x-6-6-x-x-x-6-6--8-6-4--6-6-6-6-|
E-x-x-x-4-4-x-x-x-4-4--6-4-2--4-4-4-4--x-x-x-4-4-x-x-x-4-4--6-4-2--4-4-4-4-|

E--------------------------------------------------------------------------|
B--------------------------------------------------------------------------|
G--------------------------------------------------------------------------|
D--x-x-x-6-6-x-x-x-6-6--4~-------------------------------------------------|
A--x-x-x-6-6-x-x-x-6-6--4~-------------------------------------------------|
E--x-x-x-4-4-x-x-x-4-4--2~-------------------------------------------------|


Quite bit before the last Chorus (All of these notes seem to be played rather
flat, apart from the last one):
E--------------------------------------------------------------------------|
B---9-6-9-6-9--9-6-9-6-9--9-6-9-6-9--9-6-9-6-9--9-6-9-6-9--9-6-9-6---------|
G--------------------------------------------------------------------------|
D--------------------------------------------------------------------------|
A--------------------------------------------------------------------------|
E--------------------------------------------------------------------------|

E--------------------------------------------------------------------------|
B--------------------------------------------------------------------------|
G---8-8-8-8-8-8-8-8--5~----------------------------------------------------|
D--------------------------------------------------------------------------|
A--------------------------------------------------------------------------|
E--------------------------------------------------------------------------|


3rd and final Chorus:
E------------------------------------------------------------------------|
B------------------------------------------------------------------------|
G------------------------------------------------------------------------|
D--4-4-4-3-----4-4-4-3---4-4-4-3----4-4-4-3----4-4-4-3----4-4-4-3--------|
A---------4-----------4---------4----------4----------4----------4-------|
E------------------------------------------------------------------------|  

E------------------------------------------------------------------------|
B------------------------------------------------------------------------|
G------------------------------------------------------------------------|
D------------------------------------------------------------------------|X2
A---6-6-6-6-6-3-6-6-6----------------------------------------------------|
E------------------------------------------------------------------------|


Outro (The screaming bit 'I can't cry')
E--4-4-4-4-4-4----------------------------------------------------------|
B-----------------------------------------------------------------------|
G-----------------------------------------------------------------------|X6
D-----------------------------------------------------------------------|
A-----------------------------------------------------------------------|
E-----------------------------------------------------------------------|

E--6-4-4-4-4------------------------------------------------------------|
B-----------------------------------------------------------------------|
G-----------------------------------------------------------------------|
D-----------------------------------------------------------------------|
A-----------------------------------------------------------------------|
E-----------------------------------------------------------------------|   
     

E--4-4-4-4-4-4----------------------------------------------------------|
B-----------------------------------------------------------------------|
G-----------------------------------------------------------------------|X6
D-----------------------------------------------------------------------|
A-----------------------------------------------------------------------|
E-----------------------------------------------------------------------|

E--6-4-4-4-4-4-4-4-4~---------------------------------------------------|
B----------------------2~*----------------------------------------------|
G-----------------------------------------------------------------------|
D-----------------------------------------------------------------------|
A-----------------------------------------------------------------------|
E-----------------------------------------------------------------------|   
     

*It only plays this last note on the B string in some versions of this song

And that's it. The only thing missing are the chords in the chorus (which are
hard to distinguish) and the chords in the outro. But both sets of chords have
basically been typed somewhere in this tab, as the chords do not differ vastly in
this song.


Lyrics:

I'm sorry, but red's my color now
guess you got to me somehow
this mistake has broken me she said
she said

Just shut your mouth and take the blame
and paint your face with the shame
i know because i know

Take these eyes and bury me
so that I can't see your face
and when you die, I wont cry

I've Been here before, flesh is warm
but I've grown cold
State your claim into my veins
and scrape my face in your hands
and bend me to the floor

Take these eyes and bury me
so that I can't see your face
and when you die, I can't cry

I can't
justify, your eyes, your eyes
justify, your eyes, your eyes
justify, your eyes, your eyes
justify, your eyes, your eyes

Take these eyes and bury me
so that I can't see your face
and when you die I can't cry

I can't cry
I can't cry
I can't cry
I can't cry



I'm not particularly keen on being informed about the missing chords but if
there are corrections (which I doubt dramatically (and for being so confident
I'm probably going to get a bad rating now)) then please send them in to
rupertthepinkelephant@hotmail.com 
Thanks. 
Добавлено: 27.04.2012
Другие материалы по этой песне:

Страница создана 13.04.2012
http://primanota.ru/finch/bury-me-chords.htm
Привет, Гость.
Предлагаем пройти революционный курс по гитаре.
Подарок от PrimaNota.Ru, забирай!