PrimaNota.ru - самый крупный в мире бесплатный архив песенных текстов, аккордов, табулатур и нот


Exies - My Opinion - текст песни, таба, видео

Регистрация Запомнить меня
Войти через:  Facebook Google Twitter Vk Yandex Mail.ru

Exies - My Opinion - текст песни, таба, видео

Печатать
Просмотров: 202
-------------------------------------------------------------------------------
                             MY OPINION - The Exies
-------------------------------------------------------------------------------
Tabbed by: jadexcore
Email: jadexcore51@yahoo.com
Website: http://www.afimanialand.tk

Tuning: Standard or Drop-D


Intro

Guitar I
e|------------------------------------------------------------------------------|
B|------------------------------------------------------------------------------|
G|------------------------------------------------------------------------------|
D|--------------------------|-----|---------------------------------------------|
A|---3-0-0--3-3-0--5/7-|-3x-|---------------------------------------------------|
E|---------------------------|-----|---8---8---8---8/10-10-10-10----------------|

Guitar I & II
e|------------------------------------------------------------------------------|
B|------------------------------------------------------------------------------|
G|------------------------------------------------------------------------------| 2x
D|--5-0-0--5-5-0--7/9-|-----|---------------------------------------------------|
A|---3-0-0--3-3-0--5/7-|-3x-|--10-10-10-10/12-12-12-12--------------------------|
E|---------------------------|-----|---8---8---8---8/10-10-10-10----------------|


Verse

Guitar I
e|------------------------------------------------------------------------------|
B|------------------------------------------------------------------------------|
G|------------------------------------------------------------------------------| 4x
D|----------------------|-----|-------------------------------------------------|
A|--3-3--x-x-x-x-x-x--|-3x-|--3-3-3-3--4--5-5-5---------------------------------|
E|--1-1--x-x-x-x-x-x--|-----|--1-1-1-1--2--3-3-3--------------------------------|

Guitar II w/ distortion
e|-1~ -|
B|------|
G|------| 2x
D|------|
A|------|
E|------|

e|--3-3-x-x-x-x-x-x--|-----|--3-3-3-3--4--5-5-5----------------------------------|
B|--1-1-x-x-x-x-x-x--|-3x-|--1-1-1-1--2--3-3-3-----------------------------------|
G|----------------------|-----|--------------------------------------------------| 2x
D|-------------------------------------------------------------------------------|
A|-------------------------------------------------------------------------------|
E|-------------------------------------------------------------------------------|


Pre-Chorus

Guitar I
e|-----------------------------------------------------------------------------|
B|-----------------------------------------------------------------------------|
G|-----------------------------------------------------------------------------|
D|-----------------------------------------------------------------------------|
A|--7-7-7--5-5-5--3-3-3--5-5-5--3-3-3--0-0-0-----------------------------------|
E|--5-5-5--3-3-3--1-1-1--3-3-3--1-1-1--0-0-0-----------------------------------|

Guitar II w/ distortion
e|----|
B|----|
G|----|
D|----|
A|-0--|
E|----|


Chorus

Guitar I & II
e|--------------------------------------------------------------|
B|--------------------------------------------------------------|
G|--------------------------------------------------------------|
D|--------------------------|-----|-----------------------------|
A|-3-3--4-4--6-6--5-5--|-3x-|--3-3-3-3--6-6-6-6-----------------|
E|-1-1--2-2--4-4--3-3--|-----|--1-1-1-1--4-4-4-4----------------|

Guitar I
e|------------------------------------------------|
B|------------------------------------------------|
G|------------------------------------------------|
D|------------------------------------------------|
A|-3-3-3-3--4--5-5-5------------------------------|
E|-1-1-1-1--2--3-3-3------------------------------|

Guitar II
e|-3-3-3-3--4--5-5-5------------------------------|
B|-1-1-1-1--2--3-3-3------------------------------|
G|------------------------------------------------|
D|------------------------------------------------|
A|------------------------------------------------|
E|------------------------------------------------|

Verse
Pre-Chorus
Chorus


Breakdown

Guitar I
e|----------------------------------------------------|
B|----------------------------------------------------|
G|----------------------------------------------------|
D|--------------------|-----|-------------------------|
A|---3-0-0--3-3-0-|-3x-|------------------------------|
E|--------------------|-----|---8/10~ ----------------|

e|------------------------------------------------------------------------------|
B|------------------------------------------------------------------------------|
G|------------------------------------------------------------------------------| 2x
D|--5-0-0--5-5-0--7/9-|-----|---------------------------------------------------|
A|---3-0-0--3-3-0--5/7-|-3x-|--10-10-10-10/12-12-12-12--------------------------|
E|---------------------------|-----|---8---8---8---8/10-10-10-10----------------|

Guitar II w/ distortion
e|-7~ -|
B|------|
G|------| 2x
D|------|
A|------|
E|------|

e|-12~\10~\9~/10~/12~/14~ -|
B|------------------------------------|
G|------------------------------------|
D|------------------------------------|
A|------------------------------------|
E|------------------------------------|

Chorus


Outro

Guitar I
e|---------------------------------------------------------------------|
B|---------------------------------------------------------------------|
G|---------------------------------------------------------------------|
D|--------------------------|-----|--5-0-0--5-5-0--7/9-|-----|---------|
A|-3-3--4-4--6-6--5-5--|-3x-|--3-0-0--3-3-0--5/7-|-3x-|----------------|
E|-1-1--2-2--4-4--3-3--|-----|--------------------------|-----|--------|

Guitar II w/ distortion
e|-9~ --7~ --6~ --4~ --3-3-3-3--4--5-5-5-----------------------------------|
B|--------------------------1-1-1-1--2--3-3-3------------------------------|
G|-------------------------------------------------------------------------|
D|-------------------------------------------------------------------------|
A|-------------------------------------------------------------------------|
E|-------------------------------------------------------------------------|

----------------------
|          Key           |
----------------------
| /  slide up         |
| \  slide down    |
| h  hammer-on |
| p  pull-off          |
| ~  vibrato          |
| +  harmonic     |
| x  Mute note     |
----------------------
Добавлено: 21.05.2012
Другие материалы по этой песне:

Страница создана 10.03.2012
http://primanota.ru/exies/my-opinion-chords.htm
Привет, Гость.
Предлагаем пройти революционный курс по гитаре.
Подарок от PrimaNota.Ru, забирай!