PrimaNota.ru - самый крупный в мире бесплатный архив песенных текстов, аккордов, табулатур и нот


Entombed - Black Ju Ju - текст песни, таба, видео

Регистрация Запомнить меня
Войти через:  Facebook Google Twitter Vk Yandex Mail.ru

Entombed - Black Ju Ju - текст песни, таба, видео

Печатать
Просмотров: 153
Уроки эстрадного вокала в Санкт-Петербурге
Авторы музыки: Dennis Dunaway
Авторы текста: Dennis Dunaway
Band:  Entombed
Album: Sons of Satan Praise the Lord
Song:  Black Ju Ju (Alice Cooper cover)

Copyright (c)  (Threeman Recordings) (2002)
Version 1.0 - (02/06/06)

Transcribed By: Steve
Email:          stephen.elvidge1@ntlworld.com


.  - palm mute           /  - slide up to
\  - slide down to       ~  - vibrato
h  - hammer on           b  - Bend
p  - pull off            Suffixes for bend
t  - tap                 f  - full bend    h - half bend
ph - pinched harmonic    q  - quarter bend t - tap bend
                         p  - pre bend
*  - see comment         ^  - Hold bend    r release bend
x  - Stuccatto           ~  - vibrato bend
,  - slight palm mute    () - ghost note, sustained note
"  - tremolo note        <> - harmonic

Tuning D G C F A D

 Intro/Main Riff

 Guitar 1
[--------------------------------------------------|
[--------------------------------------------------|
[--------------------------------------------------|
[-9--10\9----4--5-\4------------------4--------5-/-|
[-7--8-\7----2--3-\2----4--5-\4----2--2--------3-/-|
[-----------------------2--3-\2----0--2--------3-/-|
[Guitar 2                              h   h   h
[--------------------------------------------------|
[--------------------------------------------------|
[--------------------------------------------------|
[--------------------------------------------------|
[-7--8--7----2--3--2-------------------------------|
[-----------------------2--3--2----0-2-3p2-3p2-3/--|
[Guitar 3    
[--------------------------------------------------|
[--------------------------------------------------|
[-9--9br-----9--9br-----9--9br-----9---------------|
[--------------------------------------------------|
[--------------------------------------------------|
[--------------------------------------------------|

 Guitar 1
[--------------------------------------------------|
[--------------------------------------------------|
[--------------------------------------------------|
[-9--10\9----4--5-\4------------------4--------5-/-|
[-7--8-\7----2--3-\2----4--5-\4----2--2--------3-/-|
[-----------------------2--3-\2----0--2--------3-/-|
[Guitar 2                              
[--------------------------------------------------|
[--------------------------------------------------|
[--------------------------------------------------|
[--------------------------------------------------|
[-7--8--7----2--3--2-------------------------------|
[-----------------------2--3--2----0--2--------3/--|
[Guitar 3    
[--------------------------------------------------|
[--------------------------------------------------|
[-9--9br-----9--9br-----9--9br-----9--b------------|
[--------------------------------------------------|
[--------------------------------------------------|
[--------------------------------------------------|


 

 Guitar 1
[--------------------------------------------------|
[--------------------------------------------------|
[--------------------------------------------------|
[-9--10\9----4--5-\4------------------4--------5-/-|
[-7--8-\7----2--3-\2----4--5-\4----2--2--------3-/-|
[-----------------------2--3-\2----0--2--------3-/-|
[Guitar 2                              
[--------------------------------------------------|
[--------------------------------------------------|
[--------------------------------------------------|
[--------------------------------------------------|
[-7--8--7----2--3--2-------------------------------|
[-----------------------2--3--2----0--2--------3-/-|
[Guitar 3    
[--------------------------------------------------|
[--------------------------------------------------|
[-9--9br9----4--4br4-------------------------------|
[-----------------------4--4br4----2-----------2-/-|
[-------------------------------------2------------|
[--------------------------------------------------|

 Guitar 1
[--------------------------------------------------|
[--------------------------------------------------|
[--------------------------------------------------|
[-9--10\9----4--5-\4------------------4--------5-/-|
[-7--8-\7----2--3-\2----4--5-\4----2--2--------3-/-|
[-----------------------2--3-\2----0--2--------3-/-|
[Guitar 2                             
[--------------------------------------------------|
[--------------------------------------------------|
[--------------------------------------------------|
[--------------------------------------------------|
[-7--8--7----2--3--2-------------------------------|
[-----------------------2--3--2----0--2--------3-/-|

 Verse

 Guitar 1
[----------------------------------------------------|
[----------------------------------------------------|
[--------------fade in-<9----------------(9)---------|
[-9-\------------------------------------------------|
[-7-\------------------------------------------------|
[----------------------------------------------------|
[ Guitar 2
[----------------------------------------------------|
[----------------------------------------------------|
[-9-999-9-999---9-999-99---9-999-9-999---9-999-99----|
[-9-999-9-999\7/9-999-99-7/9-999-9-999\7/9-999-99-7--|
[-7-777-7-777\5/7-777-77-5/7-777-7-777\5/7-777-77-5/-|
[----------------------------------------------------|

 Guitar 1
  ~~~~~~~~~~~~~~~~~~~~~~~~~~~~~~~~~~~~~~~~~~~~~~~~~~~
[----------------------------------------------------|
[----------------------------------------------------|
[-9-----------------------(9)------------------------|
[----------------------------------------------------|
[----------------------------------------------------|
[----------------------------------------------------|
[ Guitar 2
[----------------------------------------------------|
[----------------------------------------------------|
[-9-999-9-999---9-999-99---9-999-9-999---9-999-99----|
[-9-999-9-999\7/9-999-99-7/9-999-9-999\7/9-999-99-7--|
[-7-777-7-777\5/7-777-77-5/7-777-7-777\5/7-777-77-5/-|
[----------------------------------------------------|

 Guitar 1
  ~~~~~~~~~~~~~~~~~~~~~~~~~~~~~~~~~~~~~~~~~~~~~~~~~~~
[----------------------------------------------------|
[----------------------------------------------------|
[-9b9-9-9-9-9-9b9-9-9-9-9b9-9-9-9-9-9-9b9-9-9-9-9-9--|
[----------------------------------------------------|
[----------------------------------------------------|
[----------------------------------------------------|
[ Guitar 2
[----------------------------------------------------|
[----------------------------------------------------|
[-9-999-9-999---9-999-99---9-999-9-999---9-999-99----|
[-9-999-9-999\7/9-999-99-7/9-999-9-999\7/9-999-99-7--|
[-7-777-7-777\5/7-777-77-5/7-777-7-777\5/7-777-77-5/-|
[----------------------------------------------------|Rpt 3 X


 Guitar 1
[--------------------------------------------------|
[--------------------------------------------------|
[--------------------------------------------------|
[-9--10\9----4--5-\4------------------4--------5-/-|
[-7--8-\7----2--3-\2----4--5-\4----2--2--------3-/-|
[-----------------------2--3-\2----0--2--------3-/-|
[Guitar 2                              h   h   h
[--------------------------------------------------|
[--------------------------------------------------|
[--------------------------------------------------|
[--------------------------------------------------|
[-7--8--7----2--3--2-------------------------------|
[-----------------------2--3--2----0--2--------3-/-|
[Guitar 3    
[--------------------------------------------------|
[--------------------------------------------------|
[-9--9br9----4--4br4------------------4--------5-/-|
[-----------------------4--4br4----2---------------|
[--------------------------------------------------|
[--------------------------------------------------| Rpt

 Rpt Verse with lead fills
    ~~~~~~~~~~~~~~~~~~~~~~~~~~~~~~~~~~~~~~~~~~~~~~~~~~~~~~~~~~~~~~
|-------------------------------------------------------------------|
|-/15fb-------------------------------------------------------------|
|-------------------------------------------------------------------|
|-------------------------------------------------------------------|
|-------------------------------------------------------------------|
|-------------------------------------------------------------------|

    ~~~~~~~~~~~~~~~~~~~~~~~~~~~~~~~~~~~~~~~~~~~~~~~~~~~~~~~~~~~~~~
|-------------------------------------------------------------------|
|-(15fb)--------------b---------b---------b---------b--------b------|
|-------------------------------------------------------------------|
|-------------------------------------------------------------------|
|-------------------------------------------------------------------|
|-------------------------------------------------------------------|

    ~~~~~~~~~~~~~~~~~~~~~~~~~~~~~~~~~~~~~~~~~~~~~~~~~~~~~~~~~~~~~~
|-------------------------------------------------------------------|
|-(15fb)--------------b---------b---------b---------b--------b---r\-|
|-------------------------------------------------------------------|
|-------------------------------------------------------------------|
|-------------------------------------------------------------------|
|-------------------------------------------------------------------|

 Guitar 1                                 pick scrape
[--------------------------------------------------------------|
[--------------------------------------------------------------|
[-9--------------(9)--------------------------------0----------|
[-9--------------(9)--------------------------\-\--------------|
[-7--------------(7)---------------------------\-\-------------|
[--------------------------------------------------------------|
[Guitar 2
[-0--------------(0)-------------------------------------------|
[--------------------------------------------------------------|
[--------------------------------------------------------------|
[---------------------------------------------------5b-222-2---|
[--------------------------------------------------------------|
[--------------------------------------------------------------|

 Bass and drums on own

  ~~~
|-------------------|
|-------------------|
|-------------------|
|-5-p222-2-222-2-2--|
|-------------------|
|-------------------| Rpt 4 X


 Guitar 1
  ~~~
[-------------------|
[-------------------|
[-------------------|
[-5-p222-2-222-2-2--|
[-------------------|
[-------------------| 
[Guitar 2
[ ~~~~~~~~~~~~~~~~~~
[-------------------|
[-5-----------------|
[-7fb---------------|
[-------------------|
[-------------------|
[-------------------| Rpt 3 X

 Guitar 1
  ~~~
[---------------------------------------------------|
[---------------------------------------------------|
[---------------------------------------------------|
[-5-p222-2-222-2-2-2----------------(2)-------------|
[---------------------------------------------------|
[---------------------------------------------------| 
[Guitar 2
[ ~~~~~~~~~~~~~~~
[---------------------------------------------------|
[-5-------------------------------------------------|
[-7fb------------r\---------------------------------|
[---------------------------------------------------|
[---------------------------------------------------|
[---------------------------------------------------|

 Drums on own

 Guitar 1
[-------------------------------------------------------|
[-------------------------------------------------------|
[-------------------------------------------------------|
[-9---9-----9---9-----9---9-----9---9------9------9-----|
[-7---7-----7---7-----7---7-----7---7------7------7-----|
[-0---0-----0---0-----0---0-----0---0------0------0-----|
[Guitar 2
[  ~~~~~~~~~~~~~~~~~~~~~~~~~~~~~~~~~~~~~~~~~~~~~~~~~~~~~
[-12--12----12--12----12--12----12--12-----12-----12----|
[-15fb15fb--15fb15fb--15fb15fb--15fb15fb---15fb---15fb--|
[-------------------------------------------------------|
[-------------------------------------------------------|
[-------------------------------------------------------|
[-------------------------------------------------------|

 Rpt intro 2 X

|-------------------------------------------------------------|
|-------------------------------------------------------------|
|-99-9-99-9-99-9-99-9-99-9-99-9-99-9-99-9-99-9-99-9-99-9-99-9-|
|-99-9-99-9-99-9-99-9-99-9-99-9-99-9-99-9-99-9-99-9-99-9-99-9-|
|-77-7-77-7-77-7-77-7-77-7-77-7-77-7-77-7-77-7-77-7-77-7-77-7-|
|-------------------------------------------------------------| Rpt

 Outro lead
                                         ~~~            ~~~
|-------------------------------------------------------------15151515-|
|------------------------------------------12---121212-----------------|
|-1212121212121212121212121212121212121214b---14-------14br12----------|
|----------------------------------------------------------------------|
|----------------------------------------------------------------------|
|----------------------------------------------------------------------|

            ~~         ~~~         ~~~~     ~~~~~~~~~~~~~~~~~~~
|---------------------------------------------------------------|
|----------12-12121212-12-12121212------------------------------|
|-------12-14b---------14b---------14b-12--14b-14b-14b-14b-14b--|
|-12-14---------------------------------------------------------|
|---------------------------------------------------------------|
|---------------------------------------------------------------|

                          ~~~~~~~~~
|----1515151515151515-12-------------------------------|
|-12-1515151515151515-12--------------1212121212121212-|
|------------------------14b141414r12-1212121212121212-|
|------------------------------------------------------|
|------------------------------------------------------|
|------------------------------------------------------|

 Guitar 1
[--------|
[--------|
[-9-\----|
[--------|
[--------|
[--------|
[Guitar 2
[--------|
[--------|
[-9-\----|
[-9-\----|
[-7-\----|
[--------|


END

Добавлено: 08.03.2012
Другие материалы по этой песне:
  • Аккорды и текст

Страница создана 08.03.2012
http://primanota.ru/entombed/black-ju-ju-chords.htm
Привет, Гость.
Предлагаем пройти революционный курс по гитаре.
Подарок от PrimaNota.Ru, забирай!