PrimaNota.ru - самый крупный в мире бесплатный архив песенных текстов, аккордов, табулатур и нот


Enter Shikari - Insomnia - текст песни, таба, видео

Регистрация Запомнить меня
Войти через:  Facebook Google Twitter Vk Yandex Mail.ru

Enter Shikari - Insomnia - текст песни, таба, видео

Печатать
Просмотров: 162
Уроки эстрадного вокала в Санкт-Петербурге
Авторы музыки: Rollo, Sister Bliss, Maxi Jazz

-------------------------------------------------------------------------------
			     SONG NAME - Band Name
-------------------------------------------------------------------------------
Tabbed by:Hugh:) OFF THE LIVE VERSION AT BRIXTON 07
Email:ourburningcity@hotmail.com

Tuning: C#
 Intro 1:12-1:34 light mute           1:33
D#|----------------------------------|----------------|
A#|----------------------------------|----------------|
F#|----------------------------------|----------------|
C#|-0-0-0--0--0--0-0---0--0-0-0-x12--|--0~------------|
G#|-0-0-0--0--0--0-0---0--0-0-0------|--0~------------|
C#|-0-0-0--0--0--0-0---0--0-0-0------|--0~------------|
    . . .  .  .  . .   .  . . .

Verse 1:41-2:41
D#|---------------------------------------------------------------------------|
A#|---------------------------------------------------------------------------|
F#|---------------------------------------------------------------------------|
C#|---4-4-4-4-4-4-4-4-4-4-4-4-4-4-4-4--3-3-3-3-3-3-3-3-3-3-3-3-3-3-3-3--------|
G#|---4-4-4-4-4-4-4-4-4-4-4-4-4-4-4-4--3-3-3-3-3-3-3-3-3-3-3-3-3-3-3-3--------|
C#|---4-4-4-4-4-4-4-4-4-4-4-4-4-4-4-4--3-3-3-3-3-3-3-3-3-3-3-3-3-3-3-3--------|

D#|---------------------------------------------------------------------------|
A#|---------------------------------------------------------------------------|
F#|---------------------------------------------------------------------------|
C#|----7-7-7-7-7-7-7-7-7-7-7-7-7-7-7-7----------------------------------------|
G#|----7-7-7-7-7-7-7-7-7-7-7-7-7-7-7-7----------------------------------------|
C#|----7-7-7-7-7-7-7-7-7-7-7-7-7-7-7-7----------------------------------------|


2:42
D#|---------------------------------------------------------------------------|
A#|---------------------------------------------------------------------------|
F#|---------------------------------------------------------------------------|
C#|--0~-----------------------------------------------------------------------|
G#|--0~-----------------------------------------------------------------------|
C#|--0~-----------------------------------------------------------------------|

pause with the insomnia tune, until at 3:17
D#|--------------------------------------------|
A#|--------------------------------------------|
F#|--------------------------------------------|
C#|----0~---7~--8~-----------------------------|
G#|----0~---7~--8~-----------------------------|x4
C#|----0~---7~--8~-----------------------------|

3:32-3:45
D#|-------------------------------------------------------------------------------------|
A#|-------------------------------------------------------------------------------------|
F#|-------------------------------------------------------------------------------------|
C#|-0-0-0--0--0-0--0--0--0-0-0---7-7-7--7--7-7--7--7--7-7-7---8-8-8--8--8-8--8--8-8-8---|
G#|-0-0-0--0--0-0--0--0--0-0-0---7-7-7--7--7-7--7--7--7-7-7---8-8-8--8--8-8--8--8-8-8---|
C#|-0-0-0--0--0-0--0--0--0-0-0---7-7-7--7--7-7--7--7--7-7-7---8-8-8--8--8-8--8--8-8-8---|
    . . .  .  . .  .  .  . . .   . . .  .  . .  .  .  . . .   . . .  .  . .

D#|---------------------------------|
A#|---------------------------------|
F#|---------------------------------|
C#|-8-8-8--8--8-8--8--8-8-8---------|
G#|-8-8-8--8--8-8--8--8-8-8---------|
C#|-8-8-8--8--8-8--8--8-8-8---------|
    . . .  .  . .  .  . . .


then at 3:46-4:00 (i suggest you play this using your first and little fingers to play 
sharp chords on 6 and 9 while using your middle and third fingers to play the 7 and 8th 
power chords
D#|-------------------------------------------------|
A#|--------6--------6-6---------6--------6-6--------|
F#|--------9--------9-9---------9--------9-9--------|
C#|-0-0-0----0-0-0--------7-7-7----8-8-8------------|
G#|-0-0-0----0-0-0--------7-7-7----8-8-8------------|
C#|-0-0-0----0-0-0--------7-7-7----8-8-8------------|
    . . .    . . .        . . .    . . .
4:00
D#|--------------------------------|
A#|--------------------------------|
F#|--------------------------------|
C#|--0-0-0--0--0-0--0--0-0-0--0----|
G#|--0-0-0--0--0-0--0--0-0-0--0----|
C#|--0-0-0--0--0-0--0--0-0-0--0----|
     . . .  .  . .  .  . . .  .

cheers, fairly easy song, bu there you go:)

| /  slide up
| \  slide down
| h  hammer-on
| p  pull-off
| ~  vibrato
| +  harmonic
| x  Mute note
===============================================================================
Добавлено: 15.07.2013
Другие материалы по этой песне:
  • Аккорды и текст

Страница создана 15.07.2013
http://primanota.ru/enter-shikari/insomnia-chords.htm
Привет, Гость.
Предлагаем пройти революционный курс по гитаре.
Подарок от PrimaNota.Ru, забирай!