PrimaNota.ru - самый крупный в мире бесплатный архив песенных текстов, аккордов, табулатур и нот


Enter Shikari - Hello Tyrannosaurus Meet Tyrannicide - текст песни, таба, видео

Регистрация Запомнить меня
Войти через:  Facebook Google Twitter Vk Yandex Mail.ru

Enter Shikari - Hello Tyrannosaurus Meet Tyrannicide - текст песни, таба, видео

Печатать
Просмотров: 121
First tab:
i couldnt find the tab for this without having to pay for it soo, i decided look it up 
on youtube for anycovers and i found one and worked it out, here is the tab that i worked out

tuning- D A D G B E

intro riff
D---------------------------------------------------------|
A---------------------------------------------------------|
D---------------------------------------------------------|
G-0--0--0--0-0-0-0-0----0----0--0--0----0----0--0--0------|   x4
B--8--8--8--8-8-8-8-8----8----8--8--8----8-----8--8-8-----|
E--11-11-11-9-9-9-9-9h10-9h10-10-10-9h10-9h10-10-10-10----|

on the last time, play it till the 4rth hammer on bit and then slide your fingers down 
the two strings you were playing on


    ..   ...      ..   ...
D-5-00-1-555--1/5-00-1-555----|
A-5-00-1-555--1/5-00-1-555----|
D-5-00-1-555--1/5-00-1-555----|   x2
G-----------------------------|
B-----------------------------|
E-----------------------------|

verse

D----------------------------------------------------------------|
A-1010-----10----10----1111-----11-----11------------------------|
D-------------------------------------------------10--10---10-10-|
G-----1212---1212--1212----1212---1212---13-12---8--8---8----8---|
B------8 8----8 8---8 8-----8 8----8 8---------------11--11------|
E----------------------------------------------------------------|


D--------------------------|
A--------------------------|
D----10p8---------10p8-----|
G-8p7----10/12~8p7----10p7-|
B--------------------------|
E--------------------------|


x2


chorus


D----------------------------------------------------------------------|
A----------------------------------------------------------------------|
D----------------------------------------------------------------------|  x2
G----------------------------------------------------------------------|
B---11-10-11-10---11-10---11-10-11-10---11-10|---11-10-11-10---11-10---|
E-10------------10------11------------11-----|-13------------13--------|


verse

D----------------------------------------------------------------|
A-1010-----10----10----1111-----11-----11------------------------|
D-------------------------------------------------10--10---10-10-|
G-----1212---1212--1212----1212---1212---13-12---8--8---8----8---|
B------8 8----8 8---8 8-----8 8----8 8---------------11--11------|
E----------------------------------------------------------------|


D--------------------------|
A--------------------------|
D----10p8---------10p8-----|
G-8p7----10/12~8p7----10p7-|
B--------------------------|
E--------------------------|

x2


bridge

D-5xx6-1212-5xx6-131312-5xx6-1212-1-1-0-0-----|
A-5xx6-1212-5xx6-131312-5xx6-1212-1-1-5b5b----|
D-5xx6-1212-5xx6-131312-5xx6-1212-1-1-7b7b----|
G-------------------------------------7b7b----|   x2
B---------------------------------------------|
E---------------------------------------------|


chorus


D----------------------------------------------------------------------|
A----------------------------------------------------------------------|
D----------------------------------------------------------------------|  x4
G----------------------------------------------------------------------|
B---11-10-11-10---11-10---11-10-11-10---11-10|---11-10-11-10---11-10---|
E-10------------10------11------------11-----|-13------------13--------|

let last note ring


breakdown


D-5555555555555555111111113
A-5555555555555555111111113
D-5555555555555555111111113
G--------------------------|
B--------------------------|
E--------------------------|

start fully parmuted and slowly release the mute
give the last cord the biggest bend you can


D-5--5555-5--5--5-5-5-5-5-5-5--5555-5-5-------|
A-5--5555-5--5--5-5-5-5-5-5-5--5555-5-5-------|
D-5--5555-5--5--5-5-5-5-5-5-5--5555-5-5-------|
G---------------------------------------------|      x4
B---------------------------------------------|
E---------------------------------------------|


D-------------------------------------------------------------|
A-10--10101010-10--10--10-10-10-10-10-10-10-10101010-10-10----|
D--0---0-0-0-0--0---0---0--0--0--0--0--0--0--0-0-0-0--0--0----|
G-12--12121212-12--12--12-12-12-12-12-12-12-12121212-12-12----|   x4
B--8---8-8-8-8--8---8---8--8--8--8--8--8--8--8-8-8-8--8--8----|
E-------------------------------------------------------------|

give the last cord a huge bend and let it ring


and that's the end of my tab, tell us what you thinkkk

b=bend
h=hammer on
p=pull off
/=slide up
\=slide down
.=short note
x=mute
||=repeat
Добавлено: 04.01.2014
Другие материалы по этой песне:
  • Аккорды и текст

Страница создана 04.01.2014
http://primanota.ru/enter-shikari/hello-tyrannosaurus-meet-tyrannicide-chords.htm
Привет, Гость.
Предлагаем пройти революционный курс по гитаре.
Подарок от PrimaNota.Ru, забирай!