PrimaNota.ru - самый крупный в мире бесплатный архив песенных текстов, аккордов, табулатур и нот


Enter Shikari - Myopia - таба, видео

Регистрация Запомнить меня
Войти через:  Facebook Google Twitter Vk Yandex Mail.ru

Enter Shikari - Myopia - таба, видео

Печатать
Просмотров: 272
-------------------------------------------------------------------------------
                             Myopia - Enter Shikari
-------------------------------------------------------------------------------
Tabbed by: Gaston_M
E-mail:

Tuning: Drop C

Key G

Intro:

e|---------------------------------------------------------------------------|
B|---------------------------------------------------------------------------|
G|---------------------------------------------------------------------------|
D|--------------------------------------------5-55555555555-5-5-55555555555--|
A|--------------------------------------------5-55555555555-5-5-55555555555--|
E|---2--12-14-10-14-9----3--12-14-10-14-9-----5-55555555555-5-5-55555555555--|
                                                ...........     ...........

Verse: I couldn't figure out the verse, but since it's on G, you can mess around with 
something like:

e|-------0-------------0------------0--------------0-------------------------|
B|----------3-------------3------------3--------------3----------------------|
G|---2--------------2------------2-------------2-----------------------------|
D|---------------------------------------------------------------------------|
A|---------------------------------------------------------------------------|
E|---------------------------------------------------------------------------|

Post-Verse:

e|---------------------------------------------------------------------------|
B|---------------------------------------------------------------------------|
G|---------------------------------------------------------------------------|
D|-----7777777777777777---7777-----------------------------------------------|
A|-----7777777777777777---7777-----------------------------------------------|
E|-----7777777777777777---7777-----------------------------------------------|
       ................

Break:

e|---------------------------------------------------------------------------|
B|---------------------------------------------------------------------------|
G|---------------------------------------------------------------------------|
D|----7-9-10--0-0-0------3-3--7-77-------------------------------------------|
A|----7-9-10--0-0-0------3-3--7-77-------------------------------------------|
E|----7-9-10--0-0-0--/---3-3--7-77-------------------------------------------|


Repeat Verse

Repeat Intro

Repeat Verse

Repeat Post-Verse

Repeat Break


************************************

| /   slide up
| \   slide down
| h   hammer-on
| p   pull-off
| ~   vibrato
| +   harmonic
| .   Mute note
| b   Bend
| pb  Pre-bend
| br  Bend release
| pbr Pre-bend release
| brb Bend release bend

************************************
Добавлено: 12.06.2015
Другие материалы по этой песне:
  • Аккорды и текст

Страница создана 12.06.2015
http://primanota.ru/enter-shikari/myopia-chords.htm
Привет, Гость.
Предлагаем пройти революционный курс по гитаре.
Подарок от PrimaNota.Ru, забирай!