PrimaNota.ru - самый крупный в мире бесплатный архив песенных текстов, аккордов, табулатур и нот


Ensiferum - Sword Chant - текст песни, таба, видео

Регистрация Запомнить меня
Войти через:  Facebook Google Twitter Vk Yandex Mail.ru

Ensiferum - Sword Chant - текст песни, таба, видео

Печатать
Просмотров: 197
                                  Sword Chant                                   


                                                                       Ensiferum
Rhythm Guitar



D||-------|-------|-------|-------|-------|-------|-------|-------|
A||-------|-------|-------|-------|-------|-------|-------|-------|
F||-------|-------|-------|-------|-------|-------|-------|-------|
C||-------|-------|-------|-------|-------|-------|-------|-------|
G||-------|-------|-------|-------|-------|-------|-------|-------|
D||-------|-------|-------|-------|-------|-------|-------|-------|


  Q    Q    Q    Q       Q    Q    Q    Q       Q    Q    H         
----------------------|----------------------|---------------------|
----------------------|----------------------|---------------------|
----------------------|----------------------|---------------------|
--2----L----L----2----|--7---------L----9----|--L------------------|
--2----L----L----0----|--5----L----L----7----|--L---------2--------|
--0---------L---------|----------------------|------------0--------|


  Q    Q    Q    Q       E  S S S S E  S S S S E  S S  
----------------------|-------------------------------|
----------------------|-------------------------------|
--2--------------4----|-------------------------------|
--0----2----4----2----|-------------------------------|
-------0----2---------|--2----------2----------2------|
----------------------|--0--0-0-0-0-0--0-0-0-0-0--0-0-|


  E  S S E  S S S S E  E  S S    E  S S S S E  S S S S E  S S  
------------------------------|-------------------------------|
------------------------------|-------------------------------|
-----------------------4------|-------------------------------|
--7------2----------2--2--2-2-|-------------------------------|
--5--5-5-0--0-0-0-0-0---------|--2----------2----------2------|
------------------------------|--0--0-0-0-0-0--0-0-0-0-0--0-0-|


  E  S S E  S S S S E  E  S S    E  S S S S S S S S S S S S S S  
------------------------------|---------------------------------|
------------------------------|---------------------------------|
------------------------------|---------------------------------|
--7------2----------4---------|---------------------------------|
--5--5-5-0--0-0-0-0-2--2------|--2------------------------------|
-----------------------0--0-0-|--0--0-0-0-0-0-0-0-0-0-0-0-0-0-0-|


  S S S S S S S S Q    Q       E  S S E  Q    E  Q     
----------------------------|-------------------------|
----------------------------|-------------------------|
------------------2----4----|-------------------------|
------------------2----2----|------------4----7--L----|
--5-5-5-5-0-0-0-0-0---------|--2---------2----5--L----|
----------------------------|--0--0-0-0---------------|


  Q    E  S S S S E  Q       S S S S S S S S S S S S S S S S  
--------------------------|----------------------------------|
--------------------------|----------------------------------|
--2------------------4----|----------------------------------|
--0----2----------4--2----|----------------------------------|
-------0--0-0-0-0-2-------|----------------------------------|
--------------------------|--0-0-0-0-----0-0-0-0-----0-0-0-0-|


  S S E.  S Q    S S Q       S S S S S S S S S S S S S S S S  
--------------------------|----------------------------------|
--------------------------|----------------------------------|
--------------------------|----------------------------------|
------2-----4-------------|----------------------------------|
------0-----2----2---2----|----------------------------------|
-----------------0---0----|--0-0-0-0-----0-0-0-0-----0-0-0-0-|


  S S E.  S E  E  S S Q       S S S S S S S S S S S S S S S S  
---------------------------|----------------------------------|
---------------------------|----------------------------------|
------------------3---4----|----------------------------------|
------2-----2--4--1---2----|----------------------------------|
------0-----0--2-----------|----------------------------------|
---------------------------|--0-0-0-0-----0-0-0-0-----0-0-0-0-|


  S S E.  S Q    S S Q       S S S S S S S S S S S S S S S S  
--------------------------|----------------------------------|
--------------------------|----------------------------------|
--------------------------|----------------------------------|
------2-----4-------------|----------------------------------|
------0-----2----2---2----|----------------------------------|
-----------------0---0----|--0-0-0-0-----0-0-0-0-----0-0-0-0-|


  S S E.  S E  E  S S Q    Q       E  S S S S S S S S S S S S S S  
--------------------------------|---------------------------------|
--------------------------------|---------------------------------|
------------------3---4---------|--4------------------------------|
------2-----2--4--1---2---------|--4------------------------------|
------0-----0--2----------------|--2--2-2-2-2-2-2-2-2-2-2-2-2-2-2-|
--------------------------------|---------------------------------|


  E  S S S S S S S S S S S S S S    E  S S S S S S S S S S S S S S  
---------------------------------|---------------------------------|
---------------------------------|---------------------------------|
--4------------------------------|--4------------------------------|
--4------------------------------|--4------------------------------|
--2--2-2-2-2-2-2-2-2-2-2-2-2-2-2-|--2--2-2-2-2-2-2-2-2-2-2-2-2-2-2-|
---------------------------------|---------------------------------|


  E  S S S S S S Q    Q     
---------------------------|
---------------------------|
--4--------------2----4----|
--4--------------0----4----|
--2--2-2-2-2-2-2-0----2----|
---------------------------|


  It's impossible to hear this                        
  E                            S S E  S S E  E  Q     
-----------------------------------------------------|
-----------------------------------------------------|
--4---------------------------------------9--9--2----|
--4----------------------------4-4-5------7--7--2----|
--2----------------------------2-2-5--5-5-7--7--0----|
-----------------------------------3--3-3------------|


  Q    E  S S Q    E  S S    Q    Q    Q    Q       E  E  Q    Q    E  S S  
--------------------------|----------------------|-------------------------|
--------------------------|----------------------|-------------------------|
--L----9------4----2------|--9----9---------9----|--------7----7----9------|
--L----9--9-9-4----2--2-2-|--9----9----9----9----|--5-----7----7----9--9-9-|
--L----7--7-7-2----0--0-0-|--7----7----9----7----|--5--5--5----5----7--7-7-|
--------------------------|------------7---------|--3--3-------------------|


  Q.     S S H           E  S S S S S S S S S S S S S S  
----------------------|---------------------------------|
----------------------|---------------------------------|
--2----------9--------|--4------------------------------|
--2------2-2-9--------|--4------------------------------|
--0------0-0-7--------|--2--2-2-2-2-2-2-2-2-2-2-2-2-2-2-|
----------------------|---------------------------------|


  E  S S S S S S S S S S S S S S    E  S S S S S S S S S S S S S S  
---------------------------------|---------------------------------|
---------------------------------|---------------------------------|
--4------------------------------|--4------------------------------|
--4------------------------------|--4------------------------------|
--2--2-2-2-2-2-2-2-2-2-2-2-2-2-2-|--2--2-2-2-2-2-2-2-2-2-2-2-2-2-2-|
---------------------------------|---------------------------------|


  E  S S S S S S Q    Q     
---------------------------|
---------------------------|
--4--------------2----4----|
--4--------------0----4----|
--2--2-2-2-2-2-2-0----2----|
---------------------------|


  It's impossible to hear this                        
  E                            S S E  S S E  E  Q     
-----------------------------------------------------|
-----------------------------------------------------|
--4---------------------------------------9--9--2----|
--4----------------------------4-4-5------7--7--2----|
--2----------------------------2-2-5--5-5-7--7--0----|
-----------------------------------3--3-3------------|


  Q    E  S S Q    E  S S    Q    Q    Q    Q       E  E  Q    Q    E  S S  
--------------------------|----------------------|-------------------------|
--------------------------|----------------------|-------------------------|
--L----9------4----2------|--9----9---------9----|--------7----7----9------|
--L----9--9-9-4----2--2-2-|--9----9----9----9----|--5-----7----7----9--9-9-|
--L----7--7-7-2----0--0-0-|--7----7----9----7----|--5--5--5----5----7--7-7-|
--------------------------|------------7---------|--3--3-------------------|


  Q.     S S H           E  S S S S S S E  S S S S S S  
----------------------|--------------------------------|
----------------------|--------------------------------|
--2----------9--------|--4-----------------------------|
--2------2-2-9--------|--4--------------2--------------|
--0------0-0-7--------|--2--2-2-2---2-2-2--------------|
----------------------|-----------------0--0---0---0-0-|


  Q    Q    S S S S S E  S    E  S S S S S S E  S S Q     
---------------------------|-----------------------------|
---------------------------|-----------------------------|
--4----4-------------------|-----------------4-----------|
--4----4-------------------|--2--------------4------2----|
--2----2--------2-2-2-5--L-|--2--------------2------2----|
---------------------------|--0--0-0-0---0-0----0---0----|


  E  S S E  S S E  S S Q       E  S S S S S S E  S S Q     
----------------------------|-----------------------------|
----------------------------|-----------------------------|
--5------7-------------4----|-----------------4-----------|
--5------7------7------4----|--2--------------4------2----|
--3--3-3-5--5-5-7--2---2----|--2--------------2------2----|
----------------5-----------|--0--0-0-0---0-0----0---0----|


  Q    Q    H           E  S S S S S S E  S S Q     
---------------------|-----------------------------|
---------------------|-----------------------------|
--2----5----4--------|-----------------4-----------|
--2----5----4--------|--2--------------4------2----|
--0----3----2--------|--2--------------2------2----|
---------------------|--0--0-0-0---0-0----0---0----|


  E  S S E  S S E  S S Q       E  S S S S S S E  S S Q     
----------------------------|-----------------------------|
----------------------------|-----------------------------|
--5------7-------------4----|-----------------4-----------|
--5------7------7------4----|--2--------------4------2----|
--3--3-3-5--5-5-7--2---2----|--2--------------2------2----|
----------------5-----------|--0--0-0-0---0-0----0---0----|


  Q    Q    E  S S Q    Q       E  S S S S S S S S S S S S S S  
-----------------------------|---------------------------------|
-----------------------------|---------------------------------|
--2----5----4----------------|--4------------------------------|
--2----5----4------2---------|--4------------------------------|
--0----3----2------2---------|--2--2-2-2-2-2-2-2-2-2-2-2-2-2-2-|
---------------0---0---------|---------------------------------|


  E  S S S S S S S S S S S S S S    E  S S S S S S S S S S S S S S  
---------------------------------|---------------------------------|
---------------------------------|---------------------------------|
--4------------------------------|--4------------------------------|
--4------------------------------|--4------------------------------|
--2--2-2-2-2-2-2-2-2-2-2-2-2-2-2-|--2--2-2-2-2-2-2-2-2-2-2-2-2-2-2-|
---------------------------------|---------------------------------|


  E  S S S S S S Q    Q     
---------------------------|
---------------------------|
--4--------------2----4----|
--4--------------0----4----|
--2--2-2-2-2-2-2-0----2----|
---------------------------|


  It's impossible to hear this                        
  E                            S S E  S S E  E  Q     
-----------------------------------------------------|
-----------------------------------------------------|
--4---------------------------------------9--9--2----|
--4----------------------------4-4-5------7--7--2----|
--2----------------------------2-2-5--5-5-7--7--0----|
-----------------------------------3--3-3------------|


  Q    E  S S Q    E  S S    Q    Q    Q    Q       E  E  Q    Q    E  S S  
--------------------------|----------------------|-------------------------|
--------------------------|----------------------|-------------------------|
--L----9------4----2------|--9----9---------9----|--------7----7----9------|
--L----9--9-9-4----2--2-2-|--9----9----9----9----|--5-----7----7----9--9-9-|
--L----7--7-7-2----0--0-0-|--7----7----9----7----|--5--5--5----5----7--7-7-|
--------------------------|------------7---------|--3--3-------------------|


  Q.     S S H           E  S S S S S S S S S S S S S S  
----------------------|---------------------------------|
----------------------|---------------------------------|
--2----------9--------|--4------------------------------|
--2------2-2-9--------|--4------------------------------|
--0------0-0-7--------|--2--2-2-2-2-2-2-2-2-2-2-2-2-2-2-|
----------------------|---------------------------------|


  E  S S S S S S S S S S S S S S    E  S S S S S S S S S S S S S S  
---------------------------------|---------------------------------|
---------------------------------|---------------------------------|
--4------------------------------|--4------------------------------|
--4------------------------------|--4------------------------------|
--2--2-2-2-2-2-2-2-2-2-2-2-2-2-2-|--2--2-2-2-2-2-2-2-2-2-2-2-2-2-2-|
---------------------------------|---------------------------------|


  E  S S S S S S Q    Q     
---------------------------|
---------------------------|
--4--------------2----4----|
--4--------------0----4----|
--2--2-2-2-2-2-2-0----2----|
---------------------------|


  It's impossible to hear this                        
  E                            S S E  S S E  E  Q     
-----------------------------------------------------|
-----------------------------------------------------|
--4---------------------------------------9--9--2----|
--4----------------------------4-4-5------7--7--2----|
--2----------------------------2-2-5--5-5-7--7--0----|
-----------------------------------3--3-3------------|


  Q    E  S S Q    E  S S    Q    Q    Q    Q       E  E  Q    Q    E  S S  
--------------------------|----------------------|-------------------------|
--------------------------|----------------------|-------------------------|
--L----9------4----2------|--9----9---------9----|--------7----7----9------|
--L----9--9-9-4----2--2-2-|--9----9----9----9----|--5-----7----7----9--9-9-|
--L----7--7-7-2----0--0-0-|--7----7----9----7----|--5--5--5----5----7--7-7-|
--------------------------|------------7---------|--3--3-------------------|


  Q.     S S H           E  S S S S S S E  S S S S S S  
----------------------|--------------------------------|
----------------------|--------------------------------|
--2----------9--------|--4-----------------------------|
--2------2-2-9--------|--4--------------2--------------|
--0------0-0-7--------|--2--2-2-2---2-2-2--------------|
----------------------|-----------------0--0---0---0-0-|


  Q    Q    S S S S S E  S    E  S S S S S S E  S S Q     
---------------------------|-----------------------------|
---------------------------|-----------------------------|
--4----4-------------------|-----------------4-----------|
--4----4-------------------|--2--------------4------2----|
--2----2--------2-2-2-5--L-|--2--------------2------2----|
---------------------------|--0--0-0-0---0-0----0---0----|


  E  S S E  S S E  S S Q       E  S S S S S S E  S S Q     
----------------------------|-----------------------------|
----------------------------|-----------------------------|
--5------7-------------4----|-----------------4-----------|
--5------7------7------4----|--2--------------4------2----|
--3--3-3-5--5-5-7--2---2----|--2--------------2------2----|
----------------5-----------|--0--0-0-0---0-0----0---0----|


  Q    Q    H           E  S S S S S S E  S S Q     
---------------------|-----------------------------|
---------------------|-----------------------------|
--2----5----4--------|-----------------4-----------|
--2----5----4--------|--2--------------4------2----|
--0----3----2--------|--2--------------2------2----|
---------------------|--0--0-0-0---0-0----0---0----|


  E  S S E  S S E  S S Q       E  S S S S S S E  S S Q     
----------------------------|-----------------------------|
----------------------------|-----------------------------|
--5------7-------------4----|-----------------4-----------|
--5------7------7------4----|--2--------------4------2----|
--3--3-3-5--5-5-7--2---2----|--2--------------2------2----|
----------------5-----------|--0--0-0-0---0-0----0---0----|


  Q    Q    H           E  S S S S S S E  S S Q     
---------------------|-----------------------------|
---------------------|-----------------------------|
--2----5----4--------|-----------------4-----------|
--2----5----4--------|--2--------------4------2----|
--0----3----2--------|--2--------------2------2----|
---------------------|--0--0-0-0---0-0----0---0----|


  E  S S E  S S E  S S Q       E  S S S S S S E  S S Q     
----------------------------|-----------------------------|
----------------------------|-----------------------------|
--5------7-------------4----|-----------------4-----------|
--5------7------7------4----|--2--------------4------2----|
--3--3-3-5--5-5-7--2---2----|--2--------------2------2----|
----------------5-----------|--0--0-0-0---0-0----0---0----|


  Q    Q    H           E  S S S S S S E  S S Q     
---------------------|-----------------------------|
---------------------|-----------------------------|
--2----5----4--------|-----------------4-----------|
--2----5----4--------|--2--------------4------2----|
--0----3----2--------|--2--------------2------2----|
---------------------|--0--0-0-0---0-0----0---0----|


  E  S S E  S S E  S S Q       E  S S S S S S E  S S Q     
----------------------------|-----------------------------|
----------------------------|-----------------------------|
--5------7-------------4----|-----------------4-----------|
--5------7------7------4----|--2--------------4------2----|
--3--3-3-5--5-5-7--2---2----|--2--------------2------2----|
----------------5-----------|--0--0-0-0---0-0----0---0----|


  Q    Q    E  S S Q       W                   W                 
------------------------|-------------------|-------------------|
------------------------|-------------------|-------------------|
--2----5----4-----------|-------------------|-------------------|
--2----5----4------2----|--L----------------|--L----------------|
--0----3----2------2----|--L----------------|--L----------------|
---------------0---0----|--L----------------|--L----------------|


  W                                                                             
-------------------|-------------------|-------------------|-------------------|
-------------------|-------------------|-------------------|-------------------|
-------------------|-------------------|-------------------|-------------------|
--L----------------|-------------------|-------------------|-------------------|
--L----------------|-------------------|-------------------|-------------------|
--L----------------|-------------------|-------------------|-------------------|


-------------------|-------------------|-------------------|-------------------|
-------------------|-------------------|-------------------|-------------------|
-------------------|-------------------|-------------------|-------------------|
-------------------|-------------------|-------------------|-------------------|
-------------------|-------------------|-------------------|-------------------|
-------------------|-------------------|-------------------|-------------------|


                      E  S S E  S S S S E  E  S S  
-------------------|------------------------------|
-------------------|------------------------------|
-------------------|------------------------------|
-------------------|---------4-------------7------|
-------------------|--2------2--2-2-----5--5--5-5-|
-------------------|--0--0-0--------3-3-3---------|


  E  S S E  S S E  S S E  S S    E  S S E  S S S S E  E  S S  
------------------------------|------------------------------|
------------------------------|------------------------------|
------------------------------|------------------------------|
---------2------5------4------|---------4-------------7------|
--2------0--0-0-3--3-3-2--2-2-|--2------2--2-2-----5--5--5-5-|
--0--0-0----------------------|--0--0-0--------3-3-3---------|


  E  S S S S E  E  S S Q.     S S    E  S S E  S S S S E  E  S S  
----------------------------------|------------------------------|
----------------------------------|------------------------------|
----------------------------------|------------------------------|
-------------2--4-----------------|---------4-------------7------|
--5----------0--2--2-2-2----------|--2------2--2-2-----5--5--5-5-|
--3--3-3-3-3-----------0------0-0-|--0--0-0--------3-3-3---------|


  E  S S E  E  S S E  Q       E  S S E  S S S S E  E  S S  
---------------------------|------------------------------|
---------------------------|------------------------------|
---------------------------|------------------------------|
---------------------------|---------4-------------7------|
--5------7--7------4--2----|--2------2--2-2-----5--5--5-5-|
--3--3-3-5--5--2-2-2--0----|--0--0-0--------3-3-3---------|


  E  S S E  E  S S E     H           E  S S E  S S S S E  E  S S  
----------------------|-----------|------------------------------|
----------------------|-----------|------------------------------|
----------------------|-----------|------------------------------|
-------------------2--|--4--------|---------4-------------7------|
--2------5--5--0-0-0--|--2--------|--2------2--2-2-----5--5--5-5-|
--0--0-0-3--3---------|-----------|--0--0-0--------3-3-3---------|


  E  S S E  S S E  S S E  S S    E  S S E  S S S S E  E  S S  
------------------------------|------------------------------|
------------------------------|------------------------------|
------------------------------|------------------------------|
---------2------5------4------|---------4-------------7------|
--2------0--0-0-3--3-3-2--2-2-|--2------2--2-2-----5--5--5-5-|
--0--0-0----------------------|--0--0-0--------3-3-3---------|


  E  S S S S E  E  S S Q    E  S S    E  S S E  S S S S E  E  S S  
-----------------------------------|------------------------------|
-----------------------------------|------------------------------|
-----------------------------------|------------------------------|
-------------2--4------------------|---------4-------------7------|
--5----------0--2--2-2-2----2------|--2------2--2-2-----5--5--5-5-|
--3--3-3-3-3-----------0----0--0-0-|--0--0-0--------3-3-3---------|


  E  S S E  E  S S E  Q       E  S S E  S S S S E  E  S S  
---------------------------|------------------------------|
---------------------------|------------------------------|
---------------------------|------------------------------|
---------------------------|---------4-------------7------|
--5------7--7------4--2----|--2------2--2-2-----5--5--5-5-|
--3--3-3-5--5--2-2-2--0----|--0--0-0--------3-3-3---------|


  E  S S E  E  S S E     H.              E  S S E  S S S S E  E  S S  
----------------------|---------------|------------------------------|
----------------------|---------------|------------------------------|
----------------------|---------------|------------------------------|
-------------------2--|--4------------|---------4-------------7------|
--2------5--5--0-0-0--|--2------------|--2------2--2-2-----5--5--5-5-|
--0--0-0-3--3---------|---------------|--0--0-0--------3-3-3---------|


  E  S S E  S S E  S S E  S S    E  S S E  S S S S E  E  S S  
------------------------------|------------------------------|
------------------------------|------------------------------|
------------------------------|------------------------------|
---------2------5------4------|---------4-------------7------|
--2------0--0-0-3--3-3-2--2-2-|--2------2--2-2-----5--5--5-5-|
--0--0-0----------------------|--0--0-0--------3-3-3---------|


  E  S S S S E  E  S S Q.     S S    E  S S E  S S S S E  E  S S  
----------------------------------|------------------------------|
----------------------------------|------------------------------|
----------------------------------|------------------------------|
-------------2--4-----------------|---------4-------------7------|
--5----------0--2--2-2-2----------|--2------2--2-2-----5--5--5-5-|
--3--3-3-3-3-----------0------0-0-|--0--0-0--------3-3-3---------|


  E  S S E  E  S S E  Q       S S S S S S S S S S S S S S S S  
---------------------------|----------------------------------|
---------------------------|----------------------------------|
---------------------------|----------------------------------|
---------------------------|----------------------------------|
--5------7--7------4--2----|----------------------------------|
--3--3-3-5--5--2-2-2--0----|--0-0-0-0-0-0-0-0-0-0-0-0-0-0-0-0-|


  S S S S S S S S S S E  Q    Q       E  S S E  S S S S E  E  S S  
-----------------------------------|------------------------------|
-----------------------------------|------------------------------|
-----------------------------------|------------------------------|
----------------------2--7---------|---------4-------------7------|
----------------------0--5----7----|--2------2--2-2-----5--5--5-5-|
--0-0-0-0-0-0-0-0-0-0---------5----|--0--0-0--------3-3-3---------|


  E  S S S S E     Q    Q       S S E  S S E  Q     Q      
----------------|------------|----------------------------|
----------------|------------|----------------------------|
----------------|------------|----------------------------|
--4-------------|--2----4----|----------------------------|
--2--2-2-----5--|--0----2----|--2-2-2--2-2-2-------14s----|
---------3-3-3--|------------|--0-0-0--0-0-0-------12s----|


  E  S S S S S S E  S S Q       E  S S E  S S E  S S Q     
-----------------------------|----------------------------|
-----------------------------|----------------------------|
-----------------4-----------|--5------7-------------4----|
--2--------------4------2----|--5------7------7------4----|
--2--------------2------2----|--3--3-3-5--5-5-7--2---2----|
--0--0-0-0---0-0----0---0----|----------------5-----------|


  E  S S S S S S E  S S Q       Q    Q    H         
-----------------------------|---------------------|
-----------------------------|---------------------|
-----------------4-----------|--2----5----4--------|
--2--------------4------2----|--2----5----4--------|
--2--------------2------2----|--0----3----2--------|
--0--0-0-0---0-0----0---0----|---------------------|


  E  S S S S S S E  S S Q       E  S S E  S S E  S S Q     
-----------------------------|----------------------------|
-----------------------------|----------------------------|
-----------------4-----------|--5------7-------------4----|
--2--------------4------2----|--5------7------7------4----|
--2--------------2------2----|--3--3-3-5--5-5-7--2---2----|
--0--0-0-0---0-0----0---0----|----------------5-----------|


  E  S S S S S S E  S S Q       Q    Q    H         
-----------------------------|---------------------|
-----------------------------|---------------------|
-----------------4-----------|--2----5----4--------|
--2--------------4------2----|--2----5----4--------|
--2--------------2------2----|--0----3----2--------|
--0--0-0-0---0-0----0---0----|---------------------|


  E  S S S S S S E  S S Q       E  S S E  S S E  S S Q     
-----------------------------|----------------------------|
-----------------------------|----------------------------|
-----------------4-----------|--5------7-------------4----|
--2--------------4------2----|--5------7------7------4----|
--2--------------2------2----|--3--3-3-5--5-5-7--2---2----|
--0--0-0-0---0-0----0---0----|----------------5-----------|


  E  S S S S S S E  S S Q       Q    Q    H         
-----------------------------|---------------------|
-----------------------------|---------------------|
-----------------4-----------|--2----5----4--------|
--2--------------4------2----|--2----5----4--------|
--2--------------2------2----|--0----3----2--------|
--0--0-0-0---0-0----0---0----|---------------------|


  E  S S S S S S E  S S Q       E  S S E  S S E  S S Q     
-----------------------------|----------------------------|
-----------------------------|----------------------------|
-----------------4-----------|--5------7-------------4----|
--2--------------4------2----|--5------7------7------4----|
--2--------------2------2----|--3--3-3-5--5-5-7--2---2----|
--0--0-0-0---0-0----0---0----|----------------5-----------|


  E  S S S S S S E  S S Q       Q    Q    H         
-----------------------------|---------------------|
-----------------------------|---------------------|
-----------------4-----------|--2----5----4--------|
--2--------------4------2----|--2----5----4--------|
--2--------------2------2----|--0----3----2--------|
--0--0-0-0---0-0----0---0----|---------------------|


  E  S S S S S S E  S S Q       E  S S E  S S E  S S Q     
-----------------------------|----------------------------|
-----------------------------|----------------------------|
-----------------4-----------|--5------7-------------4----|
--2--------------4------2----|--5------7------7------4----|
--2--------------2------2----|--3--3-3-5--5-5-7--2---2----|
--0--0-0-0---0-0----0---0----|----------------5-----------|


  E  S S S S S S E  S S Q       Q    Q    H         
-----------------------------|---------------------|
-----------------------------|---------------------|
-----------------4-----------|--2----5----4--------|
--2--------------4------2----|--2----5----4--------|
--2--------------2------2----|--0----3----2--------|
--0--0-0-0---0-0----0---0----|---------------------|


  E  S S S S S S E  S S Q       E  S S E  S S E  S S Q     
-----------------------------|----------------------------|
-----------------------------|----------------------------|
-----------------4-----------|--5------7-------------4----|
--2--------------4------2----|--5------7------7------4----|
--2--------------2------2----|--3--3-3-5--5-5-7--2---2----|
--0--0-0-0---0-0----0---0----|----------------5-----------|


  E  S S S S S S E  S S Q       Q    Q    Q    E  E     Q    Q    Q    Q     
-----------------------------|-----------------------|----------------------|
-----------------------------|-----------------------|----------------------|
-----------------4-----------|--2----5----4----L--7--|--9-------------------|
--2--------------4------2----|--2----5----4----L--7--|--9-------------------|
--2--------------2------2----|--0----3----2----L--5--|--7-------------------|
--0--0-0-0---0-0----0---0----|-----------------------|----------------------|


-----------||
-----------||
-----------||
-----------||
-----------||
-----------||





Lead Guitar



D||-------|-------|-------|-------|-------|-------|-------|-------|
A||-------|-------|-------|-------|-------|-------|-------|-------|
F||-------|-------|-------|-------|-------|-------|-------|-------|
C||-------|-------|-------|-------|-------|-------|-------|-------|
G||-------|-------|-------|-------|-------|-------|-------|-------|
D||-------|-------|-------|-------|-------|-------|-------|-------|


   E   S  S  S  S  S  S  E   E   Q        E   S  S  S  S  E   E   E   Q     
--------------------------------------|------------------------------------|
--12--12-12-10-12-10------------------|--10--10-10----10-10----------12----|
---------------------12-11------------|------------12--------14--12--------|
----------------------------14--------|------------------------------------|
--------------------------------12----|------------------------------------|
--------------------------------------|------------------------------------|


   E   S  S  S  S  S  S  E   E   E   S  S  
------------------------------------------|
--12--12-12-10-12-10----------------------|
---------------------12-11----------------|
----------------------------14--14--14-14-|
------------------------------------------|
------------------------------------------|


   E   S  S  E   S  S  S  S  E   Q        E   S  S  S  S  S  S  E   E   Q     
--------------------------------------|--------------------------------------|
--10--10-10-12--12-12-10--------------|--12--12-12-10-12-10------------------|
-------------------------11-----------|---------------------12-11------------|
----------------------------12--14----|----------------------------14--14----|
--------------------------------------|--------------------------------------|
--------------------------------------|--------------------------------------|


   E   S  S  S  S  E   E   E   Q         E   S  S  S  S  S  S  E   E   Q     
--------------------------11--12~----|--------------------------------------|
--10--10-10----10-10--12-------------|--12--12-12-10-12-10------------------|
------------12-----------------------|---------------------12-11------------|
-------------------------------------|----------------------------14--14----|
-------------------------------------|--------------------------------------|
-------------------------------------|--------------------------------------|


   E   S  S  S  S  E   E   E   Q        E   S  S  S  S  S  S  E   E   Q     
------------------------------------|--------------------------------------|
--10--10-10----10-10----------------|--12--12-12-10-12-10------------------|
------------12--------11------------|---------------------12-11------------|
--------------------------12--14----|----------------------------14--14----|
------------------------------------|--------------------------------------|
------------------------------------|--------------------------------------|


   E   S  S  S  S  E   Q     Q        E   S  S  S  S  S  S  E   E   Q     
----------------------------------|--------------------------------------|
--10--10-10----10-10--10----12----|--12--12-12-10-12-10------------------|
------------12--------------------|---------------------12-11------------|
----------------------------------|----------------------------14--14----|
----------------------------------|--------------------------------------|
----------------------------------|--------------------------------------|


   E   S  S  S  S  E   E   E   Q       S S S S S S S S S S S S S S S S  
------------------------------------|----------------------------------|
--10--10-10----10-10----------------|----------------------------------|
------------12--------11------------|----------------------------------|
--------------------------12--14----|----------------------------------|
------------------------------------|----------------------------------|
------------------------------------|--0-0-0-0-----0-0-0-0-----0-0-0-0-|


  S S E.  S Q    S S Q       S S S S S S S S S S S S S S S S  
--------------------------|----------------------------------|
--------------------------|----------------------------------|
--------------------------|----------------------------------|
------2-----4-------------|----------------------------------|
------0-----2----2---2----|----------------------------------|
-----------------0---0----|--0-0-0-0-----0-0-0-0-----0-0-0-0-|


  S S E.  S E  E  S S Q       S S S S S S S S S S S S S S S S  
---------------------------|----------------------------------|
---------------------------|----------------------------------|
------------------3---4----|----------------------------------|
------2-----2--4--1---2----|----------------------------------|
------0-----0--2-----------|----------------------------------|
---------------------------|--0-0-0-0-----0-0-0-0-----0-0-0-0-|


  S S E.  S Q    S S Q       S S S S S S S S S S S S S S S S  
--------------------------|----------------------------------|
--------------------------|----------------------------------|
--------------------------|----------------------------------|
------2-----4-------------|----------------------------------|
------0-----2----2---2----|----------------------------------|
-----------------0---0----|--0-0-0-0-----0-0-0-0-----0-0-0-0-|


  S S E.  S E  E  S S Q    Q       E  S S S S S S S S S S S S S S  
--------------------------------|---------------------------------|
--------------------------------|---------------------------------|
------------------3---4---------|--4------------------------------|
------2-----2--4--1---2---------|--4------------------------------|
------0-----0--2----------------|--2--2-2-2-2-2-2-2-2-2-2-2-2-2-2-|
--------------------------------|---------------------------------|


  E  S S S S S S S S S S S S S S    E  S S S S S S S S S S S S S S  
---------------------------------|---------------------------------|
---------------------------------|---------------------------------|
--4------------------------------|--4------------------------------|
--4------------------------------|--4------------------------------|
--2--2-2-2-2-2-2-2-2-2-2-2-2-2-2-|--2--2-2-2-2-2-2-2-2-2-2-2-2-2-2-|
---------------------------------|---------------------------------|


  E  S S S S S S Q    Q     
---------------------------|
---------------------------|
--4--------------2----4----|
--4--------------0----4----|
--2--2-2-2-2-2-2-0----2----|
---------------------------|


  It's impossible to hear this                        
  E                            S S E  S S E  E  Q     
-----------------------------------------------------|
-----------------------------------------------------|
--4---------------------------------------9--9--2----|
--4----------------------------4-4-5------7--7--2----|
--2----------------------------2-2-5--5-5-7--7--0----|
-----------------------------------3--3-3------------|


  Q    E  S S Q    E  S S    Q    Q    Q    Q       E  E  Q    Q    E  S S  
--------------------------|----------------------|-------------------------|
--------------------------|----------------------|-------------------------|
--L----9------4----2------|--9----9---------9----|--------7----7----9------|
--L----9--9-9-4----2--2-2-|--9----9----9----9----|--5-----7----7----9--9-9-|
--L----7--7-7-2----0--0-0-|--7----7----9----7----|--5--5--5----5----7--7-7-|
--------------------------|------------7---------|--3--3-------------------|


  Q.     S S H           E  S S S S S S S S S S S S S S  
----------------------|---------------------------------|
----------------------|---------------------------------|
--2----------9--------|--4------------------------------|
--2------2-2-9--------|--4------------------------------|
--0------0-0-7--------|--2--2-2-2-2-2-2-2-2-2-2-2-2-2-2-|
----------------------|---------------------------------|


  E  S S S S S S S S S S S S S S    E  S S S S S S S S S S S S S S  
---------------------------------|---------------------------------|
---------------------------------|---------------------------------|
--4------------------------------|--4------------------------------|
--4------------------------------|--4------------------------------|
--2--2-2-2-2-2-2-2-2-2-2-2-2-2-2-|--2--2-2-2-2-2-2-2-2-2-2-2-2-2-2-|
---------------------------------|---------------------------------|


  E  S S S S S S Q    Q     
---------------------------|
---------------------------|
--4--------------2----4----|
--4--------------0----4----|
--2--2-2-2-2-2-2-0----2----|
---------------------------|


  It's impossible to hear this                        
  E                            S S E  S S E  E  Q     
-----------------------------------------------------|
-----------------------------------------------------|
--4---------------------------------------9--9--2----|
--4----------------------------4-4-5------7--7--2----|
--2----------------------------2-2-5--5-5-7--7--0----|
-----------------------------------3--3-3------------|


  Q    E  S S Q    E  S S    Q    Q    Q    Q       E  E  Q    Q    E  S S  
--------------------------|----------------------|-------------------------|
--------------------------|----------------------|-------------------------|
--L----9------4----2------|--9----9---------9----|--------7----7----9------|
--L----9--9-9-4----2--2-2-|--9----9----9----9----|--5-----7----7----9--9-9-|
--L----7--7-7-2----0--0-0-|--7----7----9----7----|--5--5--5----5----7--7-7-|
--------------------------|------------7---------|--3--3-------------------|


  Q.     S S H           E  S S S S S S E  S S S S S S  
----------------------|--------------------------------|
----------------------|--------------------------------|
--2----------9--------|--4-----------------------------|
--2------2-2-9--------|--4--------------2--------------|
--0------0-0-7--------|--2--2-2-2---2-2-2--------------|
----------------------|-----------------0--0---0---0-0-|


  Q     Q    S S S S S E   S    E  S S E  S S E  S S Q     
-----------------------------|---------3--3-3-2-----------|
-----------------------3~--L-|--5--5-5-----------5---5----|
--4~----4--------------------|----------------------------|
-----------------------------|----------------------------|
-----------------2-2-2-------|----------------------------|
-----------------------------|----------------------------|


  E  S S E  S S E  S S Q       E  S S E  S S E  S S Q     
--3--3-3-2--2-2----2---2----|---------3--3-3-2-----------|
----------------5-----------|--5--5-5-----------5---5----|
----------------------------|----------------------------|
----------------------------|----------------------------|
----------------------------|----------------------------|
----------------------------|----------------------------|


  Q    S S E  Q     E  E     E  S S E  S S E  S S Q     
--5----3-2-------------2--|---------3--3-3-2-----------|
-----------5--------------|--5--5-5-----------5---5----|
--------------4~----L-----|----------------------------|
--------------------------|----------------------------|
--------------------------|----------------------------|
--------------------------|----------------------------|


  E  S S E  S S E  S S Q       E  S S E  S S E  S S Q     
--3--3-3-2--2-2----2---2----|---------3--3-3-2-----------|
----------------5-----------|--5--5-5-----------5---5----|
----------------------------|----------------------------|
----------------------------|----------------------------|
----------------------------|----------------------------|
----------------------------|----------------------------|


  Q    S S E  H        Q       E  S S S S S S S S S S S S S S  
--5----3-2------------------|---------------------------------|
-----------5----------------|---------------------------------|
--------------4-------------|--4------------------------------|
----------------------------|--4------------------------------|
----------------------------|--2--2-2-2-2-2-2-2-2-2-2-2-2-2-2-|
----------------------------|---------------------------------|


  E  S S S S S S S S S S S S S S    E  S S S S S S S S S S S S S S  
---------------------------------|---------------------------------|
---------------------------------|---------------------------------|
--4------------------------------|--4------------------------------|
--4------------------------------|--4------------------------------|
--2--2-2-2-2-2-2-2-2-2-2-2-2-2-2-|--2--2-2-2-2-2-2-2-2-2-2-2-2-2-2-|
---------------------------------|---------------------------------|


  E  S S S S S S Q    Q     
---------------------------|
---------------------------|
--4--------------2----4----|
--4--------------0----4----|
--2--2-2-2-2-2-2-0----2----|
---------------------------|


  It's impossible to hear this                        
  E                            S S E  S S E  E  Q     
-----------------------------------------------------|
-----------------------------------------------------|
--4---------------------------------------9--9--2----|
--4----------------------------4-4-5------7--7--2----|
--2----------------------------2-2-5--5-5-7--7--0----|
-----------------------------------3--3-3------------|


  Q    E  S S Q    E  S S    Q    Q    Q    Q       E  E  Q    Q    E  S S  
--------------------------|----------------------|-------------------------|
--------------------------|----------------------|-------------------------|
--L----9------4----2------|--9----9---------9----|--------7----7----9------|
--L----9--9-9-4----2--2-2-|--9----9----9----9----|--5-----7----7----9--9-9-|
--L----7--7-7-2----0--0-0-|--7----7----9----7----|--5--5--5----5----7--7-7-|
--------------------------|------------7---------|--3--3-------------------|


  Q.     S S H           E  S S S S S S S S S S S S S S  
----------------------|---------------------------------|
----------------------|---------------------------------|
--2----------9--------|--4------------------------------|
--2------2-2-9--------|--4------------------------------|
--0------0-0-7--------|--2--2-2-2-2-2-2-2-2-2-2-2-2-2-2-|
----------------------|---------------------------------|


  E  S S S S S S S S S S S S S S    E  S S S S S S S S S S S S S S  
---------------------------------|---------------------------------|
---------------------------------|---------------------------------|
--4------------------------------|--4------------------------------|
--4------------------------------|--4------------------------------|
--2--2-2-2-2-2-2-2-2-2-2-2-2-2-2-|--2--2-2-2-2-2-2-2-2-2-2-2-2-2-2-|
---------------------------------|---------------------------------|


  E  S S S S S S Q    Q     
---------------------------|
---------------------------|
--4--------------2----4----|
--4--------------0----4----|
--2--2-2-2-2-2-2-0----2----|
---------------------------|


  It's impossible to hear this                        
  E                            S S E  S S E  E  Q     
-----------------------------------------------------|
-----------------------------------------------------|
--4---------------------------------------9--9--2----|
--4----------------------------4-4-5------7--7--2----|
--2----------------------------2-2-5--5-5-7--7--0----|
-----------------------------------3--3-3------------|


  Q    E  S S Q    E  S S    Q    Q    Q    Q       E  E  Q    Q    E  S S  
--------------------------|----------------------|-------------------------|
--------------------------|----------------------|-------------------------|
--L----9------4----2------|--9----9---------9----|--------7----7----9------|
--L----9--9-9-4----2--2-2-|--9----9----9----9----|--5-----7----7----9--9-9-|
--L----7--7-7-2----0--0-0-|--7----7----9----7----|--5--5--5----5----7--7-7-|
--------------------------|------------7---------|--3--3-------------------|


  Q.     S S H           E  S S S S S S E  S S S S S S  
----------------------|--------------------------------|
----------------------|--------------------------------|
--2----------9--------|--4-----------------------------|
--2------2-2-9--------|--4--------------2--------------|
--0------0-0-7--------|--2--2-2-2---2-2-2--------------|
----------------------|-----------------0--0---0---0-0-|


  Q     Q    S S S S S E   S    E  S S E  S S E  S S Q     
-----------------------------|---------3--3-3-2-----------|
-----------------------3~--L-|--5--5-5-----------5---5----|
--4~----4--------------------|----------------------------|
-----------------------------|----------------------------|
-----------------2-2-2-------|----------------------------|
-----------------------------|----------------------------|


  E  S S E  S S E  S S Q       E  S S E  S S E  S S Q     
--3--3-3-2--2-2----2---2----|---------3--3-3-2-----------|
----------------5-----------|--5--5-5-----------5---5----|
----------------------------|----------------------------|
----------------------------|----------------------------|
----------------------------|----------------------------|
----------------------------|----------------------------|


  Q    S S E  Q     E  E     E  S S E  S S E  S S Q     
--5----3-2-------------2--|---------3--3-3-2-----------|
-----------5--------------|--5--5-5-----------5---5----|
--------------4~----L-----|----------------------------|
--------------------------|----------------------------|
--------------------------|----------------------------|
--------------------------|----------------------------|


  E  S S E  S S E  S S Q       E  S S E  S S E  S S Q     
--3--3-3-2--2-2----2---2----|---------3--3-3-2-----------|
----------------5-----------|--5--5-5-----------5---5----|
----------------------------|----------------------------|
----------------------------|----------------------------|
----------------------------|----------------------------|
----------------------------|----------------------------|


  Q    S S E  H            E   S  S  E   S  S  E   S S  Q     
--5----3-2-------------|------------15--15-15-14-------------|
-----------5-----------|--17--17-17---------------17---17----|
--------------4--------|-------------------------------------|
-----------------------|-------------------------------------|
-----------------------|-------------------------------------|
-----------------------|-------------------------------------|


   E   S  S  E   S  S  E   S S  Q        E   S  S  E   S  S  E   S S  Q     
--15--15-15-14--14-14-----14---14----|------------15--15-15-14-------------|
----------------------17-------------|--17--17-17---------------17---17----|
-------------------------------------|-------------------------------------|
-------------------------------------|-------------------------------------|
-------------------------------------|-------------------------------------|
-------------------------------------|-------------------------------------|


   Q     S  S  E   Q     E   E      E   S  S  E   S  S  E   S S  Q     
--17----15-14---------------14--|------------15--15-15-14-------------|
--------------17----------------|--17--17-17---------------17---17----|
------------------16~----L------|-------------------------------------|
--------------------------------|-------------------------------------|
--------------------------------|-------------------------------------|
--------------------------------|-------------------------------------|


   E   S  S  E   S  S  E   S S  Q        E   S  S  E   S  S  E   S S  Q     
--15--15-15-14--14-14-----14---14----|------------15--15-15-14-------------|
----------------------17-------------|--17--17-17---------------17---17----|
-------------------------------------|-------------------------------------|
-------------------------------------|-------------------------------------|
-------------------------------------|-------------------------------------|
-------------------------------------|-------------------------------------|


   Q     S  S  E   H           W                   W                 
--17----15-14---------------|-------------------|-------------------|
--------------17------------|-------------------|-------------------|
------------------16--------|--L----------------|--L----------------|
----------------------------|-------------------|-------------------|
----------------------------|-------------------|-------------------|
----------------------------|-------------------|-------------------|


  W                                                                             
-------------------|-------------------|-------------------|-------------------|
-------------------|-------------------|-------------------|-------------------|
--L----------------|-------------------|-------------------|-------------------|
-------------------|-------------------|-------------------|-------------------|
-------------------|-------------------|-------------------|-------------------|
-------------------|-------------------|-------------------|-------------------|


-------------------|-------------------|-------------------|-------------------|
-------------------|-------------------|-------------------|-------------------|
-------------------|-------------------|-------------------|-------------------|
-------------------|-------------------|-------------------|-------------------|
-------------------|-------------------|-------------------|-------------------|
-------------------|-------------------|-------------------|-------------------|


  H        Q    E  S S    E  S S E  S S S S E  E  S S  
-----------------------|------------------------------|
-----------------------|------------------------------|
-------------------4-2-|--4--4------------------------|
-----------------------|-------5-4--2-4-5-5-5--7--5-7-|
-----------------------|------------------------------|
-----------------------|------------------------------|


  E  S S E  S S E  S S E  S S    E  S S E  S S S S E  E  S S  
------------------------------|------------------------------|
------------------------------|------------------------------|
--4--4-4-2--2-2-----------4-2-|--4--4------------------------|
----------------5--4-5-4------|-------5-4--2-4-5-5-5--7--5-7-|
------------------------------|------------------------------|
------------------------------|------------------------------|


  E  S S S S E  E  S S H           E  S S E  E  E  S S E  E   
--------------------------------|----------------------------|
--------------------------------|----------------------------|
--4--4-4-2-2-2------------------|----------------------------|
----------------4--5-4-2--------|--2--2-2-4--4--5--4-5-7--7--|
--------------------------------|----------------------------|
--------------------------------|----------------------------|


  E  S S E  E  S S E  Q       E  S S E  E  E  S S E  E     E  S S E  E  S S E   
---------------------------|----------------------------|----------------------|
---------------------------|----------------------------|----------------------|
--4--4-4-2--2--------------|----------------------------|--4--4-4--------------|
---------------4-5-4--2----|--2--2-2-4--4--5--4-5-7--7--|---------5--5--7-5-7--|
---------------------------|----------------------------|----------------------|
---------------------------|----------------------------|----------------------|


  Q.     S S    E  S S E  E  S S E  E  S S    E  S S E  E  E  S S E  S S  
-------------|-----------------------------|-----------------------------|
-------------|-----------------------------|-----------------------------|
--4------4-2-|--4--4-----------------------|--4--4-4-2--2------------4-2-|
-------------|-------5-4--4--5-4-5--7--5-7-|---------------5--5-5-4------|
-------------|-----------------------------|-----------------------------|
-------------|-----------------------------|-----------------------------|


  E  S S E  E  S S E  E  S S    E  S S E  E  E  S S Q    E  S S  
-----------------------------|----------------------------------|
-----------------------------|----------------------------------|
--4--4-----------------------|--4--4-4-2--2---------------------|
-------5-4--4--5-4-5--7--5-7-|---------------4--5-4-2----2--2-2-|
-----------------------------|----------------------------------|
-----------------------------|----------------------------------|


  E  S S E  E  E  E  S S E     E  S S E  E  S S E  E  S S  
----------------------------|-----------------------------|
----------------------------|-----------------------------|
----------------------------|--4--4-4-2--2----------------|
--2--2-2-4--4--5--5--7-5-7--|---------------4-5-4--2--2-2-|
----------------------------|-----------------------------|
----------------------------|-----------------------------|


  Q    E  S S E  E  E  S S    E  S S E  E  E  S S    H.             
---------------------------|----------------------|----------------|
---------------------------|----------------------|----------------|
---------------------------|--4--4-4--------------|--4~------------|
--2----4--2-4-5--5--7--5-7-|---------5--5--7--5-7-|----------------|
---------------------------|----------------------|----------------|
---------------------------|----------------------|----------------|


  E  S S E  S S E  E  E  S S    E  S S E  E  E  S S E  S S  
-----------------------------|-----------------------------|
-----------------------------|-----------------------------|
--4--4-----------------------|--4--4-4-2--2------------4-2-|
-------5-4--2-4-5--5--7--5-7-|---------------5--4-5-4------|
-----------------------------|-----------------------------|
-----------------------------|-----------------------------|


  E  S S E  S S E  E  E  S S    E  S S E  E  E  S S H         
-----------------------------|-------------------------------|
-----------------------------|-------------------------------|
--4--4-----------------------|--4--4-4-2--2------------------|
-------5-4--2-4-5--5--7--5-7-|---------------4--5-4-2--------|
-----------------------------|-------------------------------|
-----------------------------|-------------------------------|


  E  S S E  E  E  S S E  E     E  S S E  E  S S E  Q     
----------------------------|---------------------------|
----------------------------|---------------------------|
----------------------------|--4--4-4-2--2--------------|
--2--2-2-4--4--5--4-5-7--7--|---------------4-5-4--2----|
----------------------------|---------------------------|
----------------------------|---------------------------|


  E  S S E  S S E  S S E  S S    E  S S E  S S E  S S Q    Q     
------------------------------|---------------------------------|
------------------------------|---------------------------------|
------------------------------|---------------------------------|
--9------9------9------9------|--9------9------9------0----2----|
--7--7-7-7--7-7-7--7-7-7--7-7-|--7--7-7-7--7-7-7--7-7-----------|
------------------------------|---------------------------------|


  E  S S E  E  E  S S E  S S    E  S S S S E     Q    Q     
-----------------------------|----------------|------------|
-----------------------------|----------------|------------|
-----------------------------|--4--4-4--------|--2----4----|
--2--2-2-4--4--5--4-5-7--5-7-|---------5-4-5--|------------|
-----------------------------|----------------|------------|
-----------------------------|----------------|------------|


  S S E  S S E  Q    Q        E  S S E  S S E  S S Q     
---------------------------|---------3--3-3-2-----------|
---------------------------|--5--5-5-----------5---5----|
---------------------9s----|----------------------------|
---------------------------|----------------------------|
--2-2-2--2-2-2-------------|----------------------------|
--0-0-0--0-0-0-------------|----------------------------|


  E  S S E  S S E  S S Q       E  S S E  S S E  S S Q     
--3--3-3-2--2-2----2---2----|---------3--3-3-2-----------|
----------------5-----------|--5--5-5-----------5---5----|
----------------------------|----------------------------|
----------------------------|----------------------------|
----------------------------|----------------------------|
----------------------------|----------------------------|


  Q    S S E  Q     E  E     E  S S E  S S E  S S Q     
--5----3-2-------------2--|---------3--3-3-2-----------|
-----------5--------------|--5--5-5-----------5---5----|
--------------4~----L-----|----------------------------|
--------------------------|----------------------------|
--------------------------|----------------------------|
--------------------------|----------------------------|


  E  S S E  S S E  S S Q       E  S S E  S S E  S S Q     
--3--3-3-2--2-2----2---2----|---------3--3-3-2-----------|
----------------5-----------|--5--5-5-----------5---5----|
----------------------------|----------------------------|
----------------------------|----------------------------|
----------------------------|----------------------------|
----------------------------|----------------------------|


  Q    S S E  H            E   S  S  E   S  S  E   S S  Q     
--5----3-2-------------|------------15--15-15-14-------------|
-----------5-----------|--17--17-17---------------17---17----|
--------------4--------|-------------------------------------|
-----------------------|-------------------------------------|
-----------------------|-------------------------------------|
-----------------------|-------------------------------------|


   E   S  S  E   S  S  E   S S  Q        E   S  S  E   S  S  E   S S  Q     
--15--15-15-14--14-14-----14---14----|------------15--15-15-14-------------|
----------------------17-------------|--17--17-17---------------17---17----|
-------------------------------------|-------------------------------------|
-------------------------------------|-------------------------------------|
-------------------------------------|-------------------------------------|
-------------------------------------|-------------------------------------|


   Q     S  S  E   Q     E   E      E   S  S  E   S  S  E   S S  Q     
--17----15-14---------------14--|------------15--15-15-14-------------|
--------------17----------------|--17--17-17---------------17---17----|
------------------16~----L------|-------------------------------------|
--------------------------------|-------------------------------------|
--------------------------------|-------------------------------------|
--------------------------------|-------------------------------------|


   E   S  S  E   S  S  E   S S  Q        E   S  S  E   S  S  E   S S  Q     
--15--15-15-14--14-14-----14---14----|------------15--15-15-14-------------|
----------------------17-------------|--17--17-17---------------17---17----|
-------------------------------------|-------------------------------------|
-------------------------------------|-------------------------------------|
-------------------------------------|-------------------------------------|
-------------------------------------|-------------------------------------|


   Q     S  S  E   Q     E   E      E   S  S  E   S  S  E   S S  Q     
--17----15-14---------------14--|------------15--15-15-14-------------|
--------------17----------------|--17--17-17---------------17---17----|
------------------16~----L------|-------------------------------------|
--------------------------------|-------------------------------------|
--------------------------------|-------------------------------------|
--------------------------------|-------------------------------------|


   E   S  S  E   S  S  E   S S  Q        E   S  S  E   S  S  E   S S  Q     
--15--15-15-14--14-14-----14---14----|------------15--15-15-14-------------|
----------------------17-------------|--17--17-17---------------17---17----|
-------------------------------------|-------------------------------------|
-------------------------------------|-------------------------------------|
-------------------------------------|-------------------------------------|
-------------------------------------|-------------------------------------|


   Q     S  S  E   Q     E   E      E   S  S  E   S  S  E   S S  Q     
--17----15-14---------------14--|------------15--15-15-14-------------|
--------------17----------------|--17--17-17---------------17---17----|
------------------16~----L------|-------------------------------------|
--------------------------------|-------------------------------------|
--------------------------------|-------------------------------------|
--------------------------------|-------------------------------------|


   E   S  S  E   S  S  E   S S  Q        E   S  S  E   S  S  E   S S  Q     
--15--15-15-14--14-14-----14---14----|------------15--15-15-14----------
Добавлено: 21.04.2012
Другие материалы по этой песне:

Страница создана 13.03.2012
http://primanota.ru/ensiferum/sword-chant-chords.htm
Привет, Гость.
Предлагаем пройти революционный курс по гитаре.
Подарок от PrimaNota.Ru, забирай!