PrimaNota.ru - самый крупный в мире бесплатный архив песенных текстов, аккордов, табулатур и нот


Ensiferum - Stone Cold Metal - текст песни, таба, видео

Регистрация Запомнить меня
Войти через:  Facebook Google Twitter Vk Yandex Mail.ru

Ensiferum - Stone Cold Metal - текст песни, таба, видео

Печатать
Просмотров: 137
Авторы музыки: Markus Toivonen, Sami Hinkka
Авторы текста: Sami Hinkka
  Stone Cold Metal                                 


                                   Ensiferum



                  |--3--| |--3--| |--3--| |--3--|  
     S S S S Q    S  S  S S  S  S S  S  S S  S  S  
E||----6-8-6-8----8-11-13-8-11-13-8-11-13-8-11-13-|
B||--8--------------------------------------------|
G||-----------------------------------------------|
D||-----------------------------------------------|
A||-----------------------------------------------|
E||-----------------------------------------------|


  |--3--| |--3--| |--3--| |--3--|  |--3--|  |--3--|  |--3--|  |--3--|  
  S  S  S S  S  S S  S  S S  S  S  S  S  S  S  S  S  S  S  S  S  S  S  
--8-13-17-8-13-17-8-13-17-8-13-17-10-15-19-10-15-19-10-15-19-10-15-19-|
----------------------------------------------------------------------|
----------------------------------------------------------------------|
----------------------------------------------------------------------|
----------------------------------------------------------------------|
----------------------------------------------------------------------|


             |--3--|                               |--3--|                
   Q     E   S  S  S  Q.      S  S     E   E   E   S  S  S  E   E   Q     
--20-------------------------------|-------------------------------------|
--------20--18-20-18-16---------16-|--18--20--18--16-18-16---------------|
-----------------------------17----|-----------------------17------------|
-----------------------------------|---------------------------20--------|
-----------------------------------|-------------------------------22----|
-----------------------------------|-------------------------------------|


   S  S  S  S  S  S  S  S  S  S  S  S  Q     
--------------------------------------------|
--16-13----13-16-15-13----13-16-13----13----|
--------15-------------15----------15-------|
--------------------------------------------|
--------------------------------------------|
--------------------------------------------|


   S  S  S  S  S  S  S  S  S  S  S  S  Q     
--------------------------------11-13-15----|
--13-11----------------11-13-15-------------|
--------13-12-10-12-13----------------------|
--------------------------------------------|
--------------------------------------------|
--------------------------------------------|


   S  S  S  S  S  S  S  S  S  S  S  S  S  S  S  S  
--18-16-15----------------15----------------------|
-----------18-16-15-16-18----18-16-15-13-15-16-18-|
--------------------------------------------------|
--------------------------------------------------|
--------------------------------------------------|
--------------------------------------------------|


   S  S  S  S  S  S  S  S  H         
--15--------------------------------|
-----18-16-15-13----------15--------|
-----------------15-13-15-----------|
------------------------------------|
------------------------------------|
------------------------------------|


   S  S  S  S  S  S  S  S  S  S  S  S  S  S  S  S  
--13-10----------------10-18-15----------------15-|
--------11----------11----------16----------16----|
-----------10----10----------------15----15-------|
--------------12----------------------17----------|
--------------------------------------------------|
--------------------------------------------------|


   S  S  S  S  S  S  S  S  S  S  S  S  S  S  S  S  
--15-11----------------11-16-11----------------11-|
--------13----------13----------13----------13----|
-----------12----12----------------13----13-------|
--------------13----------------------13----------|
--------------------------------------------------|
--------------------------------------------------|


                                         |--3--|                              
   S  S  S  S  S S  S  S  S  S  S  S  S  S  S  S  S     H           H         
----------------------------------------------------|------------------------|
--13-12-10---------------10----------10-12-13-15-12-|--13--------<>13--------|
-----------12-11-9-11-12----12-11-12----------------|------------------------|
----------------------------------------------------|------------------------|
----------------------------------------------------|------------------------|
----------------------------------------------------|------------------------|


     E.   S  E   E   Q     Q        E   S  S  E   S  S  H         
|-------------------------------|--------------------------------|
|-------------------------------|--------------------------------|
|*------------------------------|--------------------------------|
|*--10------10--12--13----12----|---------10-12--10----10--------|
|--------10---------------------|--13--13-----------13-----------|
|-------------------------------|--------------------------------|


   E.   S  E   E   Q     Q        E   S  S  E   E   H         
------------------------------|------------------------------|
------------------------------|------------------------------|
------------------------10----|--12--13-12-10------15--------|
--10------10--12--13----------|----------------13------------|
-------10---------------------|------------------------------|
------------------------------|------------------------------|


   E.   S  E   E   E   S  S  Q        E   S  S  E   S  S  Q     Q     
----------------------------------|----------------------------------|
----------------------------------|----------------------------------|
----------------------------------|----------------------------------|
--10------10--12--13--12-10-------|------------10--------------------|
-------10-------------------13----|--11--11-13-----13-11-10----10----|
----------------------------------|----------------------------------|


   E.   S  E   E   Q     Q        E.   S  E   E   H           
------------------------------|-----------------------------||
------------------------------|-----------------------------||
------------------------------|----------------------------*||
------------------10----13----|--12--------------10--------*||
----------10--11--------------|-------13-10--13-------------||
--13---13---------------------|-----------------------------||


   H         Q     Q        H         H            Q.      E   Q     Q     
------------------------|----------------------|--------------------------|
------------------------|--13--------16--------|--15----------------------|
------------12----13----|----------------------|----------15--12----15----|
--15--------------------|----------------------|--------------------------|
------------------------|----------------------|--------------------------|
------------------------|----------------------|--------------------------|


   W                    W                    W                  
--------------------|--------------------|--------------------||
--13----------------|---L----------------|---L----------------||
--------------------|--------------------|--------------------||
--------------------|--------------------|--------------------||
--------------------|--------------------|--------------------||
--------------------|--------------------|--------------------||




Duration Legend
---------------
W - whole
H - half
Q - quarter
E - 8th
S - 16th
T - 32nd
X - 64th
. - note dotted
|-n-|  - n-tuplets


Tablature Legend
----------------
L - tied note
x - dead note
g - grace note
(n) - ghost note
> - accentuded note
NH - natural harmonic
AH - artificial harmonic
TH - tapped harmonic
SH - semi harmonic
PH - pitch harmonic
h - hammer on
p - pull off
b - bend
br - bendRelease
pb - preBend
pbr - preBendRelease
brb - bendReleaseBend
\n/ - tremolo bar dip
\n - tremolo bar dive
-/n - tremolo bar Release up
/n\ - tremolo bar inverted dip
/n - tremolo bar return
-\n - tremolo bar Release down
S - shift slide
s - legato slide
/ -  slide into from below or out of upwards
\ -  slide into from above or out of downwards
~ - vibrato
W - wide vibrato
tr - trill
TP - tremolo picking
T - tapping
S - slap
P - pop
< - fade in
^ - brush up
v - brush down
Добавлено: 02.04.2012
Другие материалы по этой песне:

Страница создана 02.04.2012
http://primanota.ru/ensiferum/stone-cold-metal-chords.htm
Привет, Гость.
Предлагаем пройти революционный курс по гитаре.
Подарок от PrimaNota.Ru, забирай!