PrimaNota.ru - самый крупный в мире бесплатный архив песенных текстов, аккордов, табулатур и нот


Ensiferum - Lai Lai Hei - текст песни, таба, бас-таба, видео

Регистрация Запомнить меня
Войти через:  Facebook Google Twitter Vk Yandex Mail.ru

Ensiferum - Lai Lai Hei - текст песни, таба, бас-таба, видео

Печатать
Просмотров: 378
Since I wanted to learn this solo (I think it's great!) I tried to find tabs for it, but
every tab i found was missing sweeps and were partially wrogn, so I decided to slow
down this song in VLC media player and take a shot myself (Since i posted the Token of 
Time solo the same way!) so i think that this is 95-100% right, but see it for yourself and
enjoy the song!
I also did this tab in great details, so listen to the solo a few times if you're stuck!

|------------------------------------------------------------------------|
|------------------------------------------------------------------------|
|--------------6-7-9~--7-6-7~~--/11-11--9h11p----9~~-7h9p7---6~----------|
|--(9)9~~~~~~---------------------------------12-----------9----8h11p8---|
|-----(tremolo)--------------------------------------------------------9-|
|------------------------------------------------------------------------|


|-------------------------------------------------------------------------|
|-------------------------------------------------------------------------|
|---------------------------------------------------------------------14--|
|-8/11-9~~~~-------------14----------------14-16-17-16h17p16p14-16-17-----|
|---------------14-16-17----17-16-14-16-17--------------------------------|
|-------------------------------------------------------------------------|


|---------------------------------17-19~~~~~~------14-17-14---------------|
|------17-15-------15-17-19-17h19----------------15--------15-------------|
|-16-18------18-16-----------------------------14------------14-----------|
|--------------------------------------------------------------16---------|
|----------------------------------------------------------------17-16-17-|
|-------------------------------------------------------------------------|


|-----12-14-15-14-12-----------------------------10/12--14h15p14hp15p14p12-|
|---12--------------15-14-12-------------------12--------------------------|
|-13-------------------------14-12-11--------11----------------------------|
|------------------------------------12p11h12------------------------------|
|--------------------------------------------------------------------------|
|--------------------------------------------------------------------------|


|--------------------10------10-12~~-10-12-14-14-12h14p12p10-10~~--|
|-15-14-11/12~~--------12-14---------------------------------------|
|------------------------------------------------------------------|
|------------------------------------------------------------------|
|------------------------------------------------------------------|
|------------------------------------------------------------------|


|----------------------------------------9-12-9----14-10-------------|
|--------------------------------------10------10-------12-----------|
|-14--14-14--12h14p12-10-10~~~~-------9----------9--------11------11-|
|-----------------------------------11----------------------12--12---|
|---------------------------------12--------------------------14-----|
|--------------------------------------------------------------------|


|--9h10p9------------------------------------------------------------|
|--------12-------------------------12--12-14-15~-12-14-15~-12-12~~--|
|----------11h12p11-9-----------------11-----------------------------|
|---------------------12-11-9~~~~------------------------------------|
|--------------------------------------------------------------------|
|--------------------------------------------------------------------|


|-----------------------------------------------------14-18-14--14-|
|-14h15p14---------------(15)(15)-------------------14--------14---|
|----------14--11-11~~9-9-11--11------------------15---------------|
|-----------------------------------------------16-----------------|
|---------------------------------------------16-------------------|
|----------------------------------------14-18---------------------|


|-19-14----------14-18-14--------------------------------------|
|------15------15--------14------------------------------------|
|--------16--16------------15------15h16h18p16p15---16-16~~~~--|
|----------16----------------16--16---------------16-----------|
|------------------------------16------------------------------|
|--------------------------------------------------------------|


|----------------------------------------------------|
|-------------------------------/19-17-19-----17-19--|
|-------------------16-18-19-16----------19-14-------|
|-17-19-17-16-17-19----------------------------------|
|----------------------------------------------------|
|----------------------------------------------------|


|-19-16---------16-24-19------------------|
|-------17---17----------21------21/24~~--|
|----------16---------------21--21--------|
|-----------------------------21----------|
|-----------------------------------------|
|-----------------------------------------|
Добавлено: 03.12.2013
Другие материалы по этой песне:

Страница создана 05.03.2012
http://primanota.ru/ensiferum/lai-lai-hei-chords.htm
Привет, Гость.
Предлагаем пройти революционный курс по гитаре.
Подарок от PrimaNota.Ru, забирай!