PrimaNota.ru - самый крупный в мире бесплатный архив песенных текстов, аккордов, табулатур и нот


Гранадос Энрике - Valses Poticos 7 Pieces H147 No 6 - Quasi Ad Libitum - таба

Регистрация Запомнить меня
Войти через:  Facebook Google Twitter Vk Yandex Mail.ru

Гранадос Энрике - Valses Poticos 7 Pieces H147 No 6 - Quasi Ad Libitum - таба

Печатать
Просмотров: 127
Transcribed By Gary Jones

tuning: D A D G B E   Q=100   time: 3/4

1
|----------|-------------|----------|-------------|
|----------|-------------|----------|-------------|
|----------|-------------|----2--2--|-2--1h2p1----|
|----7--7--|-7--6h7p6-4--|----0-----|-0--2-----4--|
|-4--4-----|----4--------|-2--------|-2--------5--|
|-4--------|-4-----------|-0--------|-------------|

5
|-0-------|-2-------|-------[4]--|-[9]-----|
|-0-------|-0-------|------------|---------|
|----2----|----2----|-6--4-------|---------|
|---------|-4-------|----3---6---|-11------|
|-4-------|---------|------------|---------|
|---------|-0-------|-6----------|---------|

9
|----------|-------------|------------|-----9--7--|
|----------|-------------|-0--3---3---|-3---7--0--|
|----------|-------------|----4---4---|-4---9--7--|
|----7--7--|-7--6h7p6-4--|-0--3-4-5-6-|-7-8-------|
|-4--4-----|----4-----0--|------------|-----------|
|-4--------|-4-----------|------------|-----------|

13
|-12------------|-7-------5-7-|-9--------|-------|
|-10------------|-------------|----------|-------|
|--9------------|-------------|----------|-------|
|-11------------|----6--------|-------7--|-------|
|----<12>--<7>--|-5-----7-----|-0--7-----|-8-----|
|---------------|-------------|----------|-------|

17
|----5--5--|-5--4h5p4-2--|----5--5--|-5--4h5p4-2--|
|-2--2-----|------2------|-0--3-----|-3-----------|
|-2--------|-2-----------|----------|------4------|
|-4--------|-4-----------|----4-----|------2---0--|
|----------|-------------|----2-----|-2-----------|
|----------|-------------|-0--------|-------------|

21
|-0-------|-2-------|-------[4]--|-[9]-------|
|-0-------|-0-------|------------|-----------|
|----2----|----2----|-6--4-------|-----------|
|---------|-4-------|----3---6---|-11--------|
|-4-------|---------|------------|-----------|
|---------|-0-------|-6----------|-----------|

25
|----5--5--|-5--4h5p4-2--|----10--7--|-14--12--10--|
|----7--7--|-7-----------|-0---------|---------12--|
|----------|------6---2--|-7---------|-13----------|
|-4--------|-4-----------|-6---9--7--|-12-------9--|
|-4--------|-------------|-----------|-11--12------|
|-4--------|-------------|-----------|-------------|

29                                     PM       
|--9--------|--9---------|246--------|----------|
|-10--------|-----9------|-----------|----------|
|-11--------|------------|--6--------|----------|
|-11--------|--9-----11--|--4--------|----------|
|-----------|------------|-----4-----|-4--------|
|-----11----|-11---------|--------4--|----------|

33
|-------------|-------------|-------------|-------------|----------|
|-7-----------|-6-----------|-5-----------|-------------|-------0--|
|-------------|-------------|-------------|-7-----------|-6--------|
|-----4-8-4---|-----4-8-4---|-----4-7-4---|-----4-7-4---|----6--6--|
|---4-------4-|---4-------4-|---4-------4-|---5-------5-|----4-----|
|-4-----------|-4-----------|-4-----------|-4-----------|-3--------|

38
|-------------|-------[4]--|-[9]------|-------------|--------------|
|-------------|-2----------|----------|-7-----------|-6------------|
|-2h4p2-------|------------|----------|-------------|--------------|
|-4-----6--4--|----3---6---|-11-------|-----4-8-4---|-----4-8-4----|
|-------4--0--|-4--4-------|----------|---4-------4-|---4-------4--|
|-------------|------------|----------|-4-----------|-4------------|

43
|-------------|--------------|-------------|-5--4h5p4-2--|-2-------|-------||
|-5-----------|--------------|-----10--10--|-0-----------|---------|-------||
|-------------|-7------------|-------------|-------------|-2-------|-------||
|-----4-7-4---|-----4-7-9-10-|-11----------|-3-----------|-4-------|-------||
|---5-------5-|---5----------|-------------|-4-----------|---------|-------||
|-4-----------|-4------------|-11--11------|-------------|---------|-------||


Tablature Legend
----------------
 h   - hammer-on
 p   - pull-off
  - natural harmonic
[n]  - artificial harmonic
 PM  - palm muting


Добавлено: 17.05.2012
Другие материалы по этой песне:
  • Аккорды и текст

Страница создана 17.05.2012
http://primanota.ru/enrique-granados/valses-poticos-7-pieces-h147-no-6-quasi-ad-libitum-chords.htm
Привет, Гость.
Предлагаем пройти революционный курс по гитаре.
Подарок от PrimaNota.Ru, забирай!