PrimaNota.ru - самый крупный в мире бесплатный архив песенных текстов, аккордов, табулатур и нот


Гранадос Энрике - Valses Poticos 7 Pieces H147 No 5 - Allegretto Elegante - таба

Регистрация Запомнить меня
Войти через:  Facebook Google Twitter Vk Yandex Mail.ru

Гранадос Энрике - Valses Poticos 7 Pieces H147 No 5 - Allegretto Elegante - таба

Печатать
Просмотров: 184
Уроки эстрадного вокала в Санкт-Петербурге
Transcribed by Gary Jones (April 2011) - 6 to D - time 3/4

1
|----------|----------||--------------|----1-----|-1--------|------------|
|----3--3--|----3--3--||o-11--11--11--|----3--2--|----3--3--|------------|
|----3--3--|----3--3--||--------------|-2--2--2--|----3--3--|-2-0--------|
|----------|-3--------||--13--13--13--|----1-----|----3--3--|------3-----|
|-1--------|----------||o-----10------|----------|-1--------|---------0--|
|----------|----------||--10----------|-3--------|----------|------------|

7                                    PM--------|
|-3--3--3--|------------|----------|------------|-------------|-[6]------|
|-4--4--4--|----3-------|----------|------------|-11--11---11-|--8-------|
|-------5--|----3-------|-3--3--3--|------------|-12--12---12-|----------|
|----5-----|-4--4--4/---|-------5--|-1-0--------|-------------|----------|
|-0--------|-5--5-------|----5-----|------1-----|-----10------|----------|
|----------|-0-----0----|-5--------|---------5--|-10----------|----------|

13
|-6--6---6-|-[1]------|-3--3---3-|----------|----------|---------||
|----------|--3-------|-4--4---4-|----------|----------|--------o||
|-0--0---0-|----------|----3-----|-2--2--2--|-3--------|-3-------||
|----------|----------|----3-----|----------|-0--0--0--|-0-------||
|----------|----------|-3--------|----------|-1--1--1--|-1------o||
|-3--------|----------|----------|-3--3-----|----0--0--|---------||

19
||--------6-8-9-|-8-6---------|-------4-6-11-|-------------|---------4-6-|
||o-6-7-6-------|-----9-6-----|---4-7--------|-11-9-6------|-0---0-7-----|
||--------------|---------8-6-|-5------------|--------8-6--|---6---------|
||--------------|-------------|--------------|-------------|-------------|
||o-----8-------|-----8-------|-----6--------|------8------|-----6-------|
||--8-----------|-6-----------|-6------------|-11----------|-4-----------|

24            1__________________  2______________________
|-4----------|----------|--------||-5--/9----8-|-6--------||
|---7-4-2-0--|----------|-1-----o||-----6--6---|-6--------||
|------------|-3--3---2-|-2------||-----8------|-6--------||
|---------1--|----------|-3------||-----7--7---|-8--------||
|-----1---2--|----------|-------o||------------|----------||
|-4----------|-4--------|-3------||-3----------|----8-----||


Tablature Legend
----------------

||----  ---||
||o---  --o||
||----  ---||  repeat this section
||----  ---||
||o---  --o||
||----  ---||

 PM  - palm muting
 /   - slide up
 [n] - artificial harmonic

 1____________  play first time only
 2____________  play instead of 1____ on repeat


http://powertab.guitarnetwork.org                                          *
******************************************************************************
Добавлено: 10.06.2012
Другие материалы по этой песне:
  • Аккорды и текст

Страница создана 10.06.2012
http://primanota.ru/enrique-granados/valses-poticos-7-pieces-h147-no-5-allegretto-elegante-chords.htm
Привет, Гость.
Предлагаем пройти революционный курс по гитаре.
Подарок от PrimaNota.Ru, забирай!