PrimaNota.ru - самый крупный в мире бесплатный архив песенных текстов, аккордов, табулатур и нот


Гранадос Энрике - Valses Poticos 7 Pieces H147 No 3 - Tempo De Vals Lento - таба

Регистрация Запомнить меня
Войти через:  Facebook Google Twitter Vk Yandex Mail.ru

Гранадос Энрике - Valses Poticos 7 Pieces H147 No 3 - Tempo De Vals Lento - таба

Печатать
Просмотров: 109
Valses Poeticos 3 - Enrique Granados

Tab by Mike Rosulek (October 2004)

I've tried to stay as close as I can to Bream's excellent recording
of this piece. Note the change of tuning!

MOVEMENT 3: Tempo de Vals lento
===============================

drop D tuning (D A D G B E)

                                           CII
|-------------|-----0-------|-----5-----5-|-5-----------|13--11--10---|
|-3-------3---|-2-------2---|-3-----------|-2-----------|15--12--11---|
|-----2-------|-0-----------|-2-----------|-------------|-------------|
|-3-----------|-------------|-------------|-5-----------|-0-----------|
|-----0-------|-----0-------|-----0-------|-----0-------|-----0-------|
|-0-----------|-2-----------|-3-----------|-2-----------|-------------|
  3   1   3     3       3     3   4     4   4             1   1   1
  2             2             1             1             3   2   2
                              2             3
                                            1

|-8---6---5---|-----6-----6-|-6-----------|-6---5---0---|-1---0-------|
|10---8---6---|-8-----------|-8-----------|-5-----------|-3---2---3---|
|-------------|-7---0-------|-0-----------|-6-----------|-----0---1---|
|-0-----------|-8-----------|-------------|-5-----------|-3-------2---|
|-------------|-7-----------|-7-----------|-0-----------|-------------|
|-----0-------|-------------|-------------|-------------|-0---2---2---|
  1   1   1     4   2     2   2             4   2         1   4   4
  3   3   2     2             4             2             4   2   1
                3             3             3             3       3
                1                           1                     2

 CII=======================                              CIII=========
|-------------|-------------|-------------|-----0-------|-----5-----5-|
|-2-----------|-------------|-3-------3---|-2-------2---|-3-----------|
|-2---2-----2-|-2-----------|-----2-------|-0-----------|-------------|
|-2---2-----2-|-2-----------|-3-----------|-------------|-3-----------|
|-0---0-----0-|-0-----------|-----0-------|-----0-------|-----0-------|
|-------------|-------------|-0-----------|-2-----------|-0-----------|
  1   1     1   1                                         1   3     3
  1   1     1   1                                         1
  1

 CIII================= CII           CV=======
|-5-----------|-5---3---2---|-------------|-------------|-------------|
|-3-----------|-4---3---3---|-4---3-------|-------------|-------------|
|-------------|-5---3---5---|-3---2---5---|-5---0---2---|-0-----------|
|-3-----------|-0-----------|-5---4---7---|-7---8---0---|-0-----------|
|-----0-------|-0-----------|---------5---|-5-----------|-------------|
|-------------|-------------|-------------|-5-------3---|-2-----------|
  3             4   1   1     2   2   1     1       1     2
  1             2   1   2     1   1   3     3   4   2
  1             3   1   4     3   3   1     1
                                            1

 CII           CV======CIII  CII==================  Fine
|-6---5-------|-------------|-------------|-------------||--14-14---14---|
|-2-------8---|-6---5---3---|-3---2-----3-|-3-----------||10---10--------|
|-2-----------|-7---5---3---|-2-----------|-2-----------||-----11--------|
|-2-----------|---------3---|-2-----------|-4-----------||-0-------------|
|-0-----------|-------------|-0-----------|-------------||---------------|
|-------------|-5---8---6---|-------------|-0-----------||---------------|
  4   3   4     2   1   1     2   1     2   2              1 4  4    4
  1             3   1   1     1             1                   1
  1             1   4   4     1             3                   2
  1
                                              CIX=====               
                                              CV===
|14------------|--12-12---12---|12----0------|--10-10---10---|10-0-0-------|
|---8-8--------|---------------|-------------|---------------|-----0---5---|
|----11---12---|12---12--------|--11-11------|11---11--------|-----0-------|
|-0---9--------|-----11--------|-----11------|------9--------|-------------|
|--------------|---------------|-------------|---------------|-------------|
|--------------|11-------------|-8-----------|-9-------------|-5-----------|
  4 1 1    3     3 4  4    4     4 3  3        3 2  2    4     4       1
      4          1    3          1    2        1    3          1
      2               2                             1

CV======
|---7-7---7---|-7-----------|--14-14---14---|14------------|--12-12---12---|
|-5-----------|---0-0-------|10---10--------|---8-8--------|---------------|
|-----6-------|-------------|-----11--------|----11---12---|12---12--------|
|-----5-------|-----4-------|-0-------------|-0---9--------|-----11--------|
|-0-----------|-----5-------|---------------|--------------|---------------|
|-------------|-0-----------|---------------|--------------|11-------------|
  1 4 4   4     4   1
      2             2
      1
               CVIII====               CV===========        D.C. al Fine
|12----0------|--10-10---10---|10-0-0-------|---6-6---6---|-6-----------||
|-------------|---------------|---------5---|-5-----------|-------------||
|--11-11------|10---10--------|-----7-------|-----7-------|---2-2-------||
|-----11------|------8--------|-----8-------|-----5-------|-----5-------||
|-------------|---------------|-------------|-------------|-0---4-------||
|-8-----------|-8-------------|-5-----------|-5-----------|-------------||
                3 4  4    4     4   3   1     1 2 2   4     4 1 1
                1    3          1   4         1   3             4
                     1                            1             3
Добавлено: 17.05.2012
Другие материалы по этой песне:
  • Аккорды и текст

Страница создана 17.05.2012
http://primanota.ru/enrique-granados/valses-poticos-7-pieces-h147-no-3-tempo-de-vals-lento-chords.htm
Привет, Гость.
Предлагаем пройти революционный курс по гитаре.
Подарок от PrimaNota.Ru, забирай!