PrimaNota.ru - самый крупный в мире бесплатный архив песенных текстов, аккордов, табулатур и нот


Гранадос Энрике - Valses Poticos 7 Pieces H147 - таба

Регистрация Запомнить меня
Войти через:  Facebook Google Twitter Vk Yandex Mail.ru

Гранадос Энрике - Valses Poticos 7 Pieces H147 - таба

Печатать
Просмотров: 99
Valses Poeticos - Introduction - Enrique Granados

Transcribed by prusche (prusche at hotmail.com)

|---5-4---|---2-0-0-|---------------|-----0-5-5p0-------|
|---2-2---|---2-0---|-5-3--2h=3p2-0-|-2h3---------3-2-0-|
|-2-2-2-1-|---2-----|-2-------------|-------------------|
|-2-----2-|-4---0---|---------------|-2-----------------|
|-0-----0-|-5-------|---------------|-------------------|
|---------|-5---4---|-2-------------|-----------0-------|

|---5-4---|---2-0-0-|---------------|-----0-5-5p0-------|---------0-------|
|---2-2---|---2-0---|-5-3--2h=3p2-0-|-2h3---------3-2-0-|-----------3---0-|
|-2-2-2-1-|---2-----|-2-------------|-------------------|-------------6---|
|-2-----2-|-4---0---|---------------|-2-----------------|-2p0-------------|
|-0-----0-|-5-------|---------------|-------------------|-----4-2---------|
|---------|-5---4---|-2-------------|-----------0-------|---------0-------|

|-0-------12p10-9----|-12--------10p9----0-|----0----0----------|
|---3---0---------12-|----------------12---|-10--------3p2-0----|
|-----6--------------|----9----9-----------|--------------------|
|--------------------|------11-------------|------11---------2--|
|--------------------|--0---------0--------|--0--------0--------|
|-0--------0---------|---------------------|--------------------|

|-^5-4p2---2-----|-----------------|---------0-------|-0-------12p10-9----|
|-^2-----5---3-2-|-0h3-0-----------|-----------3---0-|---3---0---------12-|
|-^2-------------|-------2-1h2-1---|-------------6---|-----6--------------|
|-^2-------------|---------0-----4-|-2p0-------------|--------------------|
|-^0-------------|-----------------|-----4-2---------|--------------------|
|----------------|-4-------0-------|---------0-------|-0--------0---------|

                                                                    To Coda
|-12--------10p9----0-|----0----0---------|-^5-4p2---2-----|-----------------||
|----------------12---|-10--------3p2-0---|-^2-----5---3-2-|-0h3-0-----------||
|----9----9-----------|-------------------|-^2-------------|-------2-1h2-1---||
|------11-------------|------11---------2-|-^2-------------|---------0-----4-||
|--0---------0--------|--0--------0-------|-^0-------------|-----------------||
|---------------------|-------------------|----------------|-4-------0-------||

|---^5-4---|---5---7-|-12-0-10-0-7-7---|-0-------------|
|---^2-5---|---7---5-|-----------7---9-|-----2---0-0---|
|---^2-4---|---6---7-|-----------7-----|-------------1-|
|---^2-----|-------6-|-----------------|---2---2-4-----|
|-0----4-7-|-5-------|--0--------0-----|-0-------0-----|
|----------|-----0---|-----------------|---------------|

                                             D.S. al Coda
|---^5-4---|---5---7-|-12-0-10-0-7---7---|-0--------------||
|---^2-5---|---7---5-|-----------7-9---9-|-----2---0-0----||
|---^2-4---|---6---7-|-----------7-------|-------------1--||
|---^2-----|-------6-|-------------------|---2---2-4------||
|-0----4-7-|-5-------|--0--------0-------|-0-------0------||
|----------|-----0---|-------------------|----------------||

  &
|----------------9-12-|---10p7-----------|-----------------|------------------|
|--------9-10-12------|--------9-7---7---|-----------0-2-5-|---3-0------------|
|---9-11--------------|------------9---7-|-------1-2-------|-------1----------|
|---------------------|-0----------------|---2-4-----------|-0-------4-2-4-0--|
|-0-------------------|------------------|-0---------------|------------------|
|---------------------|----------0-------|-----------------|---------0--------|

|-----------------|---0--------7-9-10-|-9----------7-9-12-|
|-----------0-2-3-|-2---7-9-10--------|-----7-9-10--------|
|-------1-2-------|-------------------|---9---------------|
|---2-4-----------|-------------------|-------------------|
|-0---------------|-0-----------------|-0-----------------|
|-----------------|-------------------|-------------------|

|-10p9----------0------|-7-5---0-|---------|------|-5----|-9----|-^7-----||
|------12-10-----------|-----7---|-3-2-----|-7----|-3----|-9----|-^9-----||
|------------11---7-6--|---------|-----4-2-|-6----|------|-7----|-^7-----||
|----------------------|---------|---------|-5----|-4----|------|--------||
|----------------------|---------|---------|-0----|-0----|------|--------||
|----------------------|---------|---------|------|------|-0----|--------||
Добавлено: 16.03.2012
http://primanota.ru/enrique-granados/valses-poticos-7-pieces-h147-chords.htm
Привет, Гость.
Предлагаем пройти революционный курс по гитаре.
Подарок от PrimaNota.Ru, забирай!