PrimaNota.ru - самый крупный в мире бесплатный архив песенных текстов, аккордов, табулатур и нот


Гранадос Энрике - Danzas Espaolas Op 37 No 10 - Melanclica - таба, видео

Регистрация Запомнить меня
Войти через:  Facebook Google Twitter Vk Yandex Mail.ru

Гранадос Энрике - Danzas Espaolas Op 37 No 10 - Melanclica - таба, видео

Печатать
Просмотров: 138
Danza Espaсola nє10 - Enrique Granados

Tabbed by:  Miguel Celis Romero
e-mail:     mickcelis@yahoo.com
end tab:    19/jun/00

This is my second contribution. It is a nice song.
This song of Enrique Granados is one of my favorites.
Enjoy.

Tablature Explanation

        E|--------|-------|-------|----(0----|--------0===|------------|
        B|--------|-------|-------|----)1----|------1=----|----5^7p5---|
        G|--<12>--|--5h8--|--8p5--|----(2----|----2=------|------------|
        D|--------|-------|-------|----)2----|------------|------------|
        A|--------|-------|-------|----(0----|0==---------|------------|
        E|--------|-------|-------|----------|------------|------------|

          Harmonic  Hammer  Pull   Arpeggiate   Sustain       Mordent 
                      on     off                             

--------------------------------------------------------------

Danza Espaсola nє10 - Enrique Granados

TUNING 
(low to high):  D G D G B E

ALLEGRETTO
3/4

  
   (PART Nє1)

E||----------0---3---0---3----|----------0---3---0---3---|
B||------3-3---3---3---3---3--|------3-3---3---3---3---3-|
G||------4-4---4---4---4---4--|------4-4---4---4---4---4-|
D||---0-----------------------|---0----------------------|
G||-0-------------------------|-0------------------------|
D||---------------------------|--------------------------|
    p.

         rall.                a tempo

E|---------0---3-------------|---------------------------|
B|-----3-3---3---3--5h8-5----|-1----------------5h8-5----|
G|-----4-4---4---4--------7\-|---2---2---2---2--------7\-|
D|---0-----------------------|-------------0-------------|
G|-0-------------------------|---------2-----------------|
D|---------------------------|-----0---------------------|


E|---------------------------|---------------------------|
B|-0----------------5h8-5----|-1----------------5h8-5----|
G|---0---0---0---0--------7\-|---2---2---2---2--------7\-|
D|-------------0-------------|-------------0-------------|
G|---------0-----------------|---------2-----------------|
D|-----0---------------------|-----0---------------------|


E|-------------------7--7----|-5--5----------------------|
B|-0-----------------8----8--|------7--3--------5h8-5----|
G|---0---0---0---0---7-------|-----------2---2--------7--|
D|-------------0-----0---- --|-------------4-------------|
G|---------0---------0-------|---------------------------|
D|-----0---------------------|-0-------0-----------------|
                     ff.


E|---------------------------|---------------------------|
B|-0----------------5h8-5----|-1----------------5h8-5----|
G|---0---0---0---0--------7\-|---2---2---2---2--------7\-|
D|-------------0-------------|-------------0-------------|
G|---------0-----------------|---------2-----------------|
D|-----0---------------------|-----0---------------------|


E|-------------------7--7----|-5--5----------------------|
B|-0-----------------8----8--|------7--3--------5h8-5----|
G|---0---0---0---0---7-------|-----------2---2--------7--|
D|-------------0-----0---- --|-------------4-------------|
G|---------0---------0-------|---------------------------|
D|-----0---------------------|-0-------0-----------------|
                     ff.


                             poco rit.

E|-------------------------|-----------------------------|
B|-0-----------------------|-----------------------------|
G|---0---0---0---0---------|----0---0---0---0---0---0----|
D|-------------0-----5---5/|-8======---------------------|
G|---------0-------0-------|-0--------0-------0----------|
D|-----0---------------0---|------0-------0-------0------|


                                 c3......................
                                 a tempo
E|-----------------------------|-------------------6-6p3-|
B|-----------------------------|---3---3---3---3---3-----|
G|----0---0---0---0---0---0----|---3---3---3---3---3-----|
D|-8======---------------------|-------------------3-----|
G|-0--------0-------0----------|-3-------3---------3-----|
D|------0-------0-------0------|-----3-------3-----3-----|
   pp.                           f.


........   c5......  c3.............   c5.....   c3......

E|-5--5p3-------------6--6p3-|-5--5p3-----------3h6-3----|
B|-4--------6---------3------|-4-------6--------------6--|
G|------------8---8---3------|-----------8---8-----------|
D|--------------7-----3------|-------------7-------------|
G|----------5---------3------|---------5-----------------|
D|-3------------------3------|-3-------------------------|


........................................................

E|------------------3h6-3---|------------------3h6-3---|
B|-4----------------------6-|-3----------------------6-|
G|---5---5---5---5----------|---3---3---3---3----------|
D|-------------3------------|-------------3------------|
G|---------5----------------|---------3----------------|
D|-----3--------------------|-----3--------------------|


.............................................  c8.......

E|------------------3h6-3---|------------------10-10----|
B|-4----------------------6-|-3----------------11----11-|
G|---5---5---5---5----------|---3---3---3---3--10-------|
D|-------------3------------|-------------3-----8-------|
G|---------5----------------|---------3-----------------|
D|-----3--------------------|-----3---------------------|
                              ff.


...........           c3.................................

E|-8---8--------------3h6-3---|------------------3h6-3---|
B|-------10--6--------------6-|-3----------------------6-|
G|-------------8---8----------|---3---3---3---3----------|
D|---------------7------------|-------------3------------|
G|-10-------------------------|---------3----------------|
D|----------------------------|-----3--------------------|


......................................................

E|------------------3h6-3---|-------------------------|
B|-4----------------------6-|-3-----------------------|
G|---5---5---5---5----------|---3---3---3---3---3-----|
D|-------------3------------|-------------3-----------|
G|---------5----------------|---------3-------3-------|
D|-----3--------------------|-----3---------------3---|


.........................
       rall.

E|-----------------------|
B|---3---3---3---3---3---|      (END OF PART
G|-----------------------|         Nє 1)
D|-------------4---------|
G|-3-------3-------3-----|
D|-----4---------------4-|


  a tempo

E|----------0---3---0---3----|----------0---3---0---3----|
B|------3-3---3---3---3---3--|------3-3---3---3---3---3--|
G|------4-4---4---4---4---4--|------4-4---4---4---4---4--|
D|---0-----------------------|---0-----------------------|
G|-0-------------------------|-0-------------------------|
D|---------------------------|---------------------------|
   p.


         rall.                a tempo

E|---------0---3-------------|---------------------------|
B|-----3-3---3---3--5h8-5----|-1----------------5h8-5----|
G|-----4-4---4---4--------7\-|---2---2---2---2--------7\-|
D|---0-----------------------|-------------0-------------|
G|-0-------------------------|---------2-----------------|
D|---------------------------|-----0---------------------|


E|---------------------------|---------------------------|
B|-0----------------5h8-5----|-1----------------5h8-5----|
G|---0---0---0---0--------7\-|---2---2---2---2--------7\-|
D|-------------0-------------|-------------0-------------|
G|---------0-----------------|---------2-----------------|
D|-----0---------------------|-----0---------------------|


E|-------------------7--7----|-5--5----------------------|
B|-0-----------------8----8--|------7--3--------5h8-5----|
G|---0---0---0---0---7-------|-----------2---2--------7--|
D|-------------0-----0---- --|-------------4-------------|
G|---------0---------0-------|---------------------------|
D|-----0---------------------|-0-------0-----------------|
                     f.


E|---------------------------|---------------------------|
B|-0----------------5h8-5----|-1----------------5h8-5----|
G|---0---0---0---0--------7\-|---2---2---2---2--------7\-|
D|-------------0-------------|-------------0-------------|
G|---------0-----------------|---------2-----------------|
D|-----0---------------------|-----0---------------------|


E|-------------------------|-----------------------------|
B|-0-----------------------|-----------------------------|
G|---0---0---0---0---------|----0---0---0---0---0---0----|
D|-------------0-----5---5/|-8=====----------------------|
G|---------0-------0-------|-0--------0-------0----------|
D|-----0---------------0---|------0-------0-------0------|


E|---------------------------|-------------------------0-|
B|---------------------------|-----------------------3---|
G|----0---0---0---0---0---0--|----0---0---0---0--3-5-----|
D|-8=====--------------------|-8=====--------------------|
G|-0--------0-------0--------|-0--------0--------0-------|
D|------0-------0-------0----|------0-------0--------0---|
  rit.


   c2............            c2............

E|-2)--------------------0--|-2)-----------------------0-|
B|-3(-----5-3----------3----|-3(-----5-3---2--0--2--3----|
G|-2)===--------5--3h5------|-2)===-----------0----------|
D|-4(===--------------------|-4(===-----------0----------|
G|-2)===-----------0--------|-2)===-----------0----------|
D|-0(===--------------------|-0(===----------------------|
   reposando                         accel. un poco


E|---------------0-3p2-0---|--------------10-15p14-12p10-7----|
B|-7===----0-2-3---------3-|-0h3----10-12------------------10-|
G|-------------------------|-----11---------------------------|
D|-----4-7-----------------|----------------------------------|
G|-4h7---------------------|----------------------------------|
D|-------------------------|----------------------------------|
                                             poco rall.


  c7......................................................
  a tempo

E|------------------7h10-7----|------------------7h10-7----|
B|-8-----------------------10-|-7-----------------------10-|
G|---9---9---9---9------------|---7---7---7---7------------|
D|-------------7--------------|-------------7--------------|
G|---------9------------------|---------7------------------|
D|-----7----------------------|-----7----------------------|


  .............................................

E|------------------7h10-7----|------------------14--14----|
B|-8-----------------------10-|-7----------------15-----15-|
G|---9---9---9---9------------|---7---7---7---7--14--------|
D|-------------7--------------|-------------7-----0--------|
G|---------9------------------|---------7------------------|
D|-----7----------------------|-----7----------------------|
                                                  f.


                            c7........................

E|-12-12-------------------7h10-7----|-----------------14-14----|
B|-------14--10-------------------10-|-7---------------15----15-|
G|-12-----------12----12-------------|---7---7---7---7-14-------|
D|-----------------11----------------|-------------7----0-------|
G|-----------------------------------|---------7----------------|
D|-----------------------------------|-----7--------------------|
                            f.


                           c7.........................

E|-12-12-------------------7h10-7----|-----------------------------|
B|-------14--10-------------------10-|-7---------------------10-12-|
G|-12-----------12----12-------------|---7---7---7---7--10-12------|
D|-----------------11----------------|-------------7---------------|
G|-----------------------------------|---------7--------10---------|
D|-----------------------------------|-----7-----------------------|


  c9........  c6.......                  c7......

E|---9-----------7-----------5-7-|     |-9p7-------10-------------|
B|-----12-10-------10-8--6h8-----|     |-----10-8-----------------|
G|-------------------------------|  2/4|-----------10-9-7^9p7--5--|
D|-----------------------0-------|     |------------0-------------|
G|-9-----------6-----------------|     |--------------------------|
D|-------------------------------|     |-7------------------------|
   molto rit.                            rubato


                                        ANDANTE
                                                  C1..
E     |--------------------------|     |-1--------1--------|
B     |-3------------------------|     |-3--------3--------|
G  3/4|-3p2-0-2-3----------------|  2/4|----------1h2------|
D     |-----------0--------------|     |-------0------3-0--|
G     |-------------0h2-0--------|     |-----2-------------|
D     |--------------------3-1---|     |---0---------------|
                  rit.


                 c3......  c5.......               c3......

E     |-0(-------------------------|     |-----------------|
B     |-1)-5^3-2-3---------5-------|     |-6---0---3-------|
G  3/4|-0(---------5-3-------7-5---|  2/4|-7-----6---5-3---|
D     |-2)-------------7---------8-|     |---7-----------7-|
G     |-0(-------------------------|     |-----------------|
D     |----------3---------5-------|     |-0-------3-------|
        ten. il canto


                              c2......       c3...........
            
E     |--------------------------------|     |--------------|
B     |------------------------2-------|     |-3=-----------|
G  3/4|-0-----------0--2--3------4-2---|  2/4|-3=-5-3-------|
D     |-0-----------2--3--5----------5-|     |-3=------7--5-|
G     |-------0===---------------------|     |-3=-----------|
D     |-0-2-3------------------2-------|     |--------------|
       riten


       c2...............     c10........

E     |----------------------------------|
B     |-2-3-2^3^2---2-3---2--------10-12-|
G  3/4|-2---------4-----4----10-12-------|
D     |-2-----------2--------------------|
G     |-2--------------------10----------|
D     |----------------------------------|
       animando


  c9........  c6.......                  c7......

E|---9-----------7-----------5-7-|     |-9p7-------10-------------|
B|-----12-10-------10-8--6h8-----|     |-----10-8-----------------|
G|-------------------------------|  2/4|-----------10-9-7^9p7--5--|
D|-----------------------0-------|     |------------0-------------|
G|-9-----------6-----------------|     |--------------------------|
D|-------------------------------|     |-7------------------------|
   alargando molto                           


                                   c2...........

E     |--------------------------|-2)------------------0--|
B     |-3------------------------|-3(----5-3---2--0h2-3---|  
G  3/4|-3p2-0-2-3----------------|-2)===----------0-------| 
D     |-----------0--------------|-4(===----------0-------|   
G     |-------------0h2-0---0----|-2)===----------0-------|    
D     |-------------------3---2--|-0(===------------------|    
                      molto rit.    meno


   c2...........

E|-2)------------------0--|-------------7(harm)------------0-------|
B|-3(----5-3---2--0h2-3---|-7(harm)------------------0-2-3------10-|
G|-2)===----------0-------|-7(harm)----------------2---------11----|
D|-4(===----------0-------|-7(harm)--------------4-----------------|
G|-2)===----------0-------|-----------7(harm)----------------------|
D|-0(===------------------|---------7(harm)------------------------|


E|-8-10-15p14-12h10-8-7-8------------|
B|------------------------7--5-------|
G|-----------------------------------|
D|-----------------------------------|
G|-----------------------------------|
D|-----------------------------------|
      molto rall.         ten.


REPEAT PART Nє 1
and then play this


E|----------0---3---0---3----|----------0---3---0---3----|
B|------3-3---3---3---3---3--|------3-3---3---3---3---3--|
G|------4-4---4---4---4---4--|------4-4---4---4---4---4--|
D|---0-----------------------|---0-----------------------|
G|-0-------------------------|-0-------------------------|
D|---------------------------|---------------------------|
   p.


E|---------0---3-------------|---------------------------|
B|-----3-3---3---3--5h8-5----|-----------------5h8-5-----|
G|-----4-4---4---4--------7\-|-5======----------------7--|
D|---0-----------------------|-4======-------------------|
G|-0-------------------------|-2======-------------------|
D|---------------------------|-0======-------------------|
                 rall. e morendo


E|---------------------------|---------------------------|
B|-0======----------5h8-5----|--------------10---7---5---|
G|-0======----------------7--|-5======-------------7---5-|
D|-0======-------------------|-4======-------------------|
G|-0======-------------------|-2======-------------------|
D|---------------------------|-0======-------------------|
                                            cadencioso


E|---------------------------|----------------------15===||
B|-0======-------------------|-------12(harm)-------0====||
G|-0======-------------------|-----12(harm)---------0====||
D|-0======-------------------|---12(harm)-----------0====||
G|-0======-------------------|-12(harm)-------------0====||
D|---------------------------|---------------------------||
   pp.                                              ff.


You can send me any corrections, comments or tabs to:
             
                mickcelis@yahoo. com
Добавлено: 05.06.2012
Другие материалы по этой песне:
  • Аккорды и текст

Страница создана 05.06.2012
http://primanota.ru/enrique-granados/danzas-espaolas-op-37-no-10-melanclica-chords.htm
Привет, Гость.
Предлагаем пройти революционный курс по гитаре.
Подарок от PrimaNota.Ru, забирай!