PrimaNota.ru - самый крупный в мире бесплатный архив песенных текстов, аккордов, табулатур и нот


Гранадос Энрике - Danzas Espaolas Op 37 No 4 - Villanesca - таба, видео

Регистрация Запомнить меня
Войти через:  Facebook Google Twitter Vk Yandex Mail.ru

Гранадос Энрике - Danzas Espaolas Op 37 No 4 - Villanesca - таба, видео

Печатать
Просмотров: 118
DANZA ESPANOLA #4 - VILLANESCA
As recorded by Enrique Granados

Transcribed by Andy Smith

[apologies to anyone who was trying to play it using standard tuning -
thanks to Steve Lush for the correction - weed@wussu.com - 21 Feb 05]

NOTE - this is in 'Drop-D-G' tuning - D G D G B E

E |----[10]--|----[10]--|----[10]--|----[10]---||
B |-0--------|-0--------|-0--------|-0---------||
G |-7--------|-7--------|-7--------|-7-------7-||
D |-0--------|-0--------|-0--------|-0---------||
G |-0--------|-0--------|-0--------|-0---------||
D |----------|----------|----------|-----------||

|-----10----7-8-|-8p7----7-10---|-5-5-5-7-8-10-|-10p8-7-8-10---|
|-8-8--8-10-----|---7-10----8---|--------------|----------10-8-|
|---------------|-------------9-|-5---5--------|----9----------|
|-0----9--------|---0-------9---|-0------------|----0-----10---|
|-0-------------|---0-----------|-0------------|----0----------|
|---------------|---------------|--------------|---------------|

|--------10-------|----[10]---||-----10----7-8-|-8p7----7-10---|
|--7-7-8p=7-----7-|-8---------||-8-8--8-10-----|---7-10----8---|
|-----------7-9---|-7-------7-||---------------|-------------9-|
|-10-----10-------|-9---------||-0----9--------|---0-------9---|
|--0--------------|-0---------||-0-------------|---0-----------|
|-----------------|-----------||---------------|---------------|

|-5-5-5-7-8-10-|-10p8-7-8-10---|--------10-------|----[10]---||
|--------------|----------10-8-|--7-7-8p=7-----7-|-8---------||
|-5---5--------|----9----------|-----------7-9---|-7---------||
|-0------------|----0-----10---|-10-----10-------|-9-------0-||
|-0------------|----0----------|--0--------------|-0---------||
|--------------|---------------|-----------------|-----------||

|-----1-------|---------1---|-----0-------|---------0---|
|-----0---0-1-|-1p0---0-0---|-----1---1-3-|-3p1-0-1-1---|
|-0-0-0h2-----|-----2---0---|-2-2-2h4-----|---------2-0-|
|-0-----------|---0-------2-|-2-----------|---2---------|
|-0-----------|---0---------|-0-----------|---0---------|
|-------------|-------------|-------------|-------------|

|-----5-------|-------0-5---|-^3-3-10----------|-------------15---||
|-1-1-5---5-7-|-7p5-3-----3-|-^0------10-12-13-|-13p12-10-12--0---||
|-----5h7-----|---0-----5---|-^0---12----------|-----0-------12---||
|-2-----------|---0-----4---|-^0---------------|-----0----------0-||
|-0-----------|---0---------|-^0---------------|-----0------------||
|-------------|-------------|------------------|------------------||

|-----1-------|---------1---|-----0-------|---------0---|
|-----0---0-1-|-1p0---0-0---|-----1---1-3-|-3p1-0-1-1---|
|-0-0-0h2-----|-----2---0---|-2-2-2h4-----|---------2-0-|
|-0-----------|---0-------2-|-2-----------|---2---------|
|-0-----------|---0---------|-0-----------|---0---------|
|-------------|-------------|-------------|-------------|

|-----5-------|-------0-5---|-^3-3-10----------|-------------15--|
|-1-1-5---5-7-|-7p5-3-----3-|-^0------10-12-13-|-13p12-10-12--0--|
|-----5h7-----|---0-----5---|-^0---12----------|-----0-------12--|
|-2-----------|---0-----4---|-^0---------------|-----0-----------|
|-0-----------|---0---------|-^0---------------|-----0-----------|
|-------------|-------------|------------------|-----------------|

|------------|-----------|------------|-----------|
|---------3--|-1-0-1-----|---------3--|-0---0-----|
|------------|-------2---|------------|---2---0---|
|-0-----0----|-2-0-2-----|-0-----0----|-0---0-----|
|-2h4-5------|-0-----5---|-2h4-5------|-0-5---4---|
|-5----------|-------5-0-|-5----------|-------5-0-|

|------------|-----------|------------|
|---------3--|-1-0-1-----|---------3--|
|------------|-------2---|------------|
|-0-----0----|-2-0-2-----|-0-----0----|
|-2h4-5------|-0-----5---|-2h4-5------|
|-5----------|-------5-0-|-5----------|

|-----------|-----3--|----3--|----3--||
|-0---0---0-|--------|-3-----|-3-----||
|---2---0---|-2-0-0--|-4-----|-4-----||
|-0---0---0-|-0------|-0-----|-0-----||
|-0-5---4---|-5-4-4--|-0-----|-0-----||
|-------5-0-|-5------|-------|-------||

|--------------------||----[10]--|----[10]--|----[10]--|
|--3---7-5-----------||----------|-8--------|-8--------|
|--4-------7-5-4--2--||-0--------|-7--------|-7--------|
|-----------------4--||-0--------|-9--------|-9--------|
|-----------------5--||-0--------|-0--------|-0--------|
|-----------------0--||----------|----------|----------|

|----[10]---||-----10----7-8-|-8p7----7-10---|-5-5-5-7-8-10-|
|-0---------||-8-8--8-10-----|---7-10----8---|--------------|
|-7-------7-||---------------|-------------9-|-5---5--------|
|-0---------||-0----9--------|---0-------9---|-0------------|
|-0---------||-0-------------|---0-----------|-0------------|
|-----------||---------------|---------------|--------------|

|-10p8-7-8-10---|--------10-------|----[10]---||
|----------10-8-|--7-7-8p-7-----7-|-8---------||
|----9----------|-----------7-9---|-7-------7-||
|----0-----10---|-10-----10-------|-9---------||
|----0----------|--0--------------|-0---------||
|---------------|-----------------|-----------||

|-----1-------|---------1---|-----0-------|---------0---|
|-----0---0-1-|-1p0---0-0---|-----1---1-3-|-3p1-0-1-1---|
|-0-0-0h2-----|-----2---0---|-2-2-2h4-----|---------2-0-|
|-0-----------|---0-------2-|-2-----------|---0---------|
|-0-----------|---0---------|-0-----------|---0---------|
|-------------|-------------|-------------|-------------|

|-----5-------|-------0-5---|-^3-3-10----------|-------------15--|
|-1-1-5---5-7-|-7p5-3-----3-|-^0------10-12-13-|-13p12-10-12--0--|
|-----5h7-----|---0-----5---|-^0---12----------|-----0-------12--|
|-2-----------|---0-----4---|-^0---------------|-----0-----------|
|-0-----------|---0---------|-^0---------------|-----0-----------|
|-------------|-------------|------------------|-----------------|

|------------|-----------|------------|-----------|
|---------3--|-1-0-1-----|---------3--|-0---0-----|
|------------|-------2---|------------|---2---0---|
|-0-----0----|-2-0-2-----|-0-----0----|-0---0-----|
|-2h4-5------|-0-----5---|-2h4-5------|-0-5---4---|
|-5----------|-------5-0-|-5----------|-------5-0-|

|------------|-----------|------------|
|---------3--|-1-0-1-----|---------3--|
|------------|-------2---|------------|
|-0-----0----|-2-0-2-----|-0-----0----|
|-2h4-5------|-0-----5---|-2h4-5------|
|-5----------|-------5-0-|-5----------|

|-----------|-----3--|----3--|----3--|
|-0---0---0-|--------|-3-----|-3-----|
|---2---0---|-2-0-0--|-4-----|-4-----|
|-0---0---0-|-0------|-0-----|-0-----|
|-0-5---4---|-5-4-4--|-0-----|-0-----|
|-------5-0-|-5------|-------|-------|

|--------------------||----[10]--|----[10]--|----[10]--|
|--3---7-5-----------||----------|-3--------|-3--------|
|--4-------7-5-4--2--||-0--------|-4--------|-4--------|
|-----------------4--||-0--------|-0--------|-0--------|
|-----------------5--||-0--------|-0--------|-0--------|
|-----------------0--||----------|----------|----------|

|----[10]---|-----------|---------|---------|----------|
|-3-------3-|-(3)--[3]--|-3--[3]--|-3--[3]--|-3------3-|
|-4---------|--3--------|-3-------|-3-------|-3--------|
|-0---------|--0--------|-0-------|-0-------|-0--<5>---|
|-0---------|--0--------|-0-------|-0-------|-0--------|
|-----------|-----------|---------|---------|----------|

|-3---3-5-6-8-6-5-6---5-|-6--8--8--10-----|
|---6-5---3---5-6---8---|-6-10-10--11---6-|
|-----5---3---0-----7-5-|-7---------------|
|---------------7---8---|-8-10-10---------|
|-----------------------|---10-10--10-----|
|-----------------------|-----------8-----|

|-6----6-8-10-11-10--8-10-6--8-|-10-12-12--14------|--3----1-3-1-----------|
|---10-8----6-----8-10----6-10-|----10-10--10--3---|-------------4-3-3-----|
|------9----7--------9----7--9-|-10-12-12--11----5-|-----3-2-------3-2-3-5-|
|-----------------8-10------10-|--8-11-11---0------|-----------3-------5-3-|
|------------------------------|-------------------|-----------------------|
|------------------------------|-------------------|-----------------------|

|---------3--1-3-1---|-------------------|-----------------------||
|-3-3---3----------4-|-3-3---1---3-------|-------------------3-1-||
|-3-3---3-3----------|-3-0-3-------0-2-3-|-2-0----------0-0------||
|--------------------|-----1-3-2-0-0-2-0-|---2-4tr2-2-4----------||
|-3-2-0------2-------|-3-----2---3-----2-|-5---5----------3------||
|-------3-2----------|-------------------|-----0----------5------||

|-3---3-5-6-8-6-5-6---5-|-6--8--8-10p8----8-10------|
|---6-5---3---5-6---8---|-6-10-10------11---11--6-4-|
|-----5---3---0-----7-5-|-7-------------------------|
|---------------7---8---|-8-10-10-------------------|
|-----------------------|---10-10-----------10------|
|-----------------------|--------------------8------|

|-6----6-8-10-11-10--8-10-6--8-|-10-12-12-14p12-10-12-14------|
|---10-8----6-----8-10----6-10-|----10-10-------------10--3---|
|------9----7--------9----7--9-|-10-12-12-------------11----5-|
|-----------------8-10------10-|--8-11-11--------------0------|
|------------------------------|------------------------------|
|------------------------------|------------------------------|

|--6--5-3-1-3-1-----------|-------------3----1--3-1---|
|---------------4-3-3---1-|-3-4-3-----3-3-1---------0-|
|-------3-2-------3-2-0---|-3-5-3-------0----2--------|
|-------------3---------3-|------------------0--------|
|-------------------------|-3---2--0------------------|
|-------------------------|-----------3-2----1--------|

|-----------------|----------------------------||
|---1-3-----------|--------------------------3-||
|-3-0-2-0-2-3-2-0-|-2-0----------0-0---<12>----||
|-3---4-0-----0---|---2-4tr2-2-4---------------||
|-1-0---3-5---3---|-5---5----------5-2---3-----||
|-0-1-0-----------|-----0----------5-----------||

|-----10----7-8-|-8p7----7-10---|-5-5-5-7-8-10-|-10p8-7-8-10---|
|-8-8--8-10-----|---7-10----8---|--------------|----------10-8-|
|---------------|-------------9-|-5---5--------|----9----------|
|-0----9--------|---0-------9---|-0------------|----0-----10---|
|-0-------------|---0-----------|-0------------|----0----------|
|---------------|---------------|--------------|---------------|

|--------10-------|----[10]---||-----10----7-8-|-8p7----7-10---|
|--7-7-8p=7-----7-|-8---------||-8-8--8-10-----|---7-10----8---|
|-----------7-9---|-7-------7-||---------------|-------------9-|
|-10-----10-------|-9---------||-0----9--------|---0-------9---|
|--0--------------|-0---------||-0-------------|---0-----------|
|-----------------|-----------||---------------|---------------|

|-5-5-5-7-8-10-|-10p8-7-8-10---|--------10-------|----[10]---||
|--------------|----------10-8-|--7-7-8p=7-----7-|-8---------||
|-5---5--------|----9----------|-----------7-9---|-7---------||
|-0------------|----0-----10---|-10-----10-------|-9-------0-||
|-0------------|----0----------|--0--------------|-0---------||
|--------------|---------------|-----------------|-----------||

|-----1-------|---------1---|-----0-------|---------0---|
|-----0---0-1-|-1p0---0-0---|-----1---1-3-|-3p1-0-1-1---|
|-0-0-0h2-----|-----2---0---|-2-2-2h4-----|---------2-0-|
|-0-----------|---0-------2-|-2-----------|---2---------|
|-0-----------|---0---------|-0-----------|---0---------|
|-------------|-------------|-------------|-------------|

|-----5-------|-------0-5---|-^3-3-10----------|-------------15---|
|-1-1-5---5-7-|-7p5-3-----3-|-^0------10-12-13-|-13p12-10-12--0---|
|-----5h7-----|---0-----5---|-^0---12----------|-----0-------12---|
|-2-----------|---0-----4---|-^0---------------|-----0----------0-|
|-0-----------|---0---------|-^0---------------|-----0------------|
|-------------|-------------|------------------|------------------|

|-----1-------|---------1---|-----0-------|---------0---|
|-----0---0-1-|-1p0---0-0---|-----1---1-3-|-3p1-0-1-1---|
|-0-0-0h2-----|-----2---0---|-2-2-2h4-----|---------2-0-|
|-0-----------|---0-------2-|-2-----------|---2---------|
|-0-----------|---0---------|-0-----------|---0---------|
|-------------|-------------|-------------|-------------|

|-----5-------|-------0-5---|-^3-3-10----------|-------------15--||
|-1-1-5---5-7-|-7p5-3-----3-|-^0------10-12-13-|-13p12-10-12--0--||
|-----5h7-----|---0-----5---|-^0---12----------|-----0-------12--||
|-2-----------|---0-----4---|-^0---------------|-----0-----------||
|-0-----------|---0---------|-^0---------------|-----0-----------||
|-------------|-------------|------------------|-----------------||

|------------|-----------|------------|-----------|
|---------3--|-1-0-1-----|---------3--|-0---0-----|
|------------|-------2---|------------|---2---0---|
|-0-----0----|-2-0-2-----|-0-----0----|-0---0-----|
|-2h4-5------|-0-----5---|-2h4-5------|-0-5---4---|
|-5----------|-------5-0-|-5----------|-------5-0-|

|------------|-----------|------------|-----------|
|---------3--|-1-0-1-----|---------3--|-0---0---0-|
|------------|-------2---|------------|---2---0---|
|-0-----0----|-2-0-2-----|-0-----0----|-0---0---0-|
|-2h4-5------|-0-----5---|-2h4-5------|-0-5---4---|
|-5----------|-------5-0-|-5----------|-------5-0-|

|-----3--|----3--|----3--||--------------------||
|--------|-3-----|-3-----||--3---7-5-----------||
|-2-0-0--|-4-----|-4-----||--4-------7-5-4--2--||
|-0------|-0-----|-0-----||-----------------4--||
|-5-4-4--|-0-----|-0-----||-----------------5--||
|-5------|-------|-------||-----------------0--||

|----[10]--|----[10]--|----[10]--|----[10]---||
|----------|-8--------|-8--------|-0---------||
|-0--------|-7--------|-7--------|-7-------7-||
|-0--------|-9--------|-9--------|-0---------||
|-0--------|-0--------|-0--------|-0---------||
|----------|----------|----------|-----------||

|-----10----7-8-|-8p7----7-10---|-5-5-5-7-8-10-|-10p8-7-8-10---|
|-8-8--8-10-----|---7-10----8---|--------------|----------10-8-|
|---------------|-------------9-|-5---5--------|----9----------|
|-0----9--------|---0-------9---|-0------------|----0-----10---|
|-0-------------|---0-----------|-0------------|----0----------|
|---------------|---------------|--------------|---------------|

|--------10-------|----[10]---||-----1-------|---------1---|
|--7-7-8p-7-----7-|-8---------||-----0---0-1-|-1p0---0-0---|
|-----------7-9---|-7---------||-0-0-0h2-----|-----2---0---|
|-10-----10-------|-9-------0-||-0-----------|---0-------2-|
|--0--------------|-0---------||-0-----------|---0---------|
|-----------------|-----------||-------------|-------------|

|-----0-------|---------0---|-----5-------|-------0-5---|
|-----1---1-3-|-3p1-0-1-1---|-1-1-5---5-7-|-7p5-3-----3-|
|-2-2-2h4-----|---------2-0-|-----5h7-----|---0-----5---|
|-2-----------|---2---------|-2-----------|---0-----4---|
|-0-----------|---0---------|-0-----------|---0---------|
|-------------|-------------|-------------|-------------|

|-^3-3-10----------|-------------15--||------------|-----------|
|-^0------10-12-13-|-13p12-10-12--0--||---------3--|-1-0-1-----|
|-^0---12----------|-----0-------12--||------------|-------2---|
|-^0---------------|-----0-----------||-0-----0----|-2-0-2-----|
|-^0---------------|-----0-----------||-2h4-5------|-0-----5---|
|------------------|-----------------||-5----------|-------5-0-|

|------------|-----------|------------|-----------|
|---------3--|-0---0-----|---------3--|-1-0-1-----|
|------------|---2---0---|------------|-------2---|
|-0-----0----|-0---0-----|-0-----0----|-2-0-2-----|
|-2h4-5------|-0-5---4---|-2h4-5------|-0-----5---|
|-5----------|-------5-0-|-5----------|-------5-0-|

|------------|-----------|-----3--|
|---------3--|-0---0---0-|--------|
|------------|---2---0---|-2-0-0--|
|-0-----0----|-0---0---0-|-0------|
|-2h4-5------|-0-5---4---|-5-4-4--|
|-5----------|-------5-0-|-5------|

|----3--|----3--||--------------------||----[10]--|
|-3-----|-3-----||--3---7-5-----------||----------|
|-4-----|-4-----||--4-------7-5-4--2--||-0--------|
|-0-----|-0-----||-----------------4--||-0--------|
|-0-----|-0-----||-----------------5--||-0--------|
|-------|-------||-----------------0--||----------|

|----[10]--|----[10]--|----[10]--|------|--------*|
|-3--------|-3--------|-3--------|-3----|--------*|
|-4--------|-4--------|-4--------|-4----|-<7>----*|
|-0--------|-0--------|-0--------|-0----|--------*|
|-0--------|-0--------|-0--------|-0----|--------*|
|----------|----------|----------|------|--------*|
Добавлено: 20.06.2012
Другие материалы по этой песне:
  • Аккорды и текст

Страница создана 20.06.2012
http://primanota.ru/enrique-granados/danzas-espaolas-op-37-no-4-villanesca-chords.htm
Привет, Гость.
Предлагаем пройти революционный курс по гитаре.
Подарок от PrimaNota.Ru, забирай!