PrimaNota.ru - самый крупный в мире бесплатный архив песенных текстов, аккордов, табулатур и нот


Ennio Morricone - La Missione San Antonio - таба, видео

Регистрация Запомнить меня
Войти через:  Facebook Google Twitter Vk Yandex Mail.ru

Ennio Morricone - La Missione San Antonio - таба, видео

Печатать
Просмотров: 120
La Missione San Antonio from The Good The Bad & The Ugly

Ennio Morricone

Tabbed by ScreamOfSilence

Tuning: (E A D G B E)



All sounds adapted to guitar


|---------------------------|
|---------------------------|
|----9--7--9----------------|
|-7-------------------------|
|---------------------------|
|---------------------------|


|-------------------------------------------|
|------------10-----------------------------|
|----11-9-11-------11-9-7-------------------|
|-7--------------7------------7-------------|
|-------------------------------------------|
|-------------------------------------------|


|-------------------------------------------|
|-------------------------------------------|
|---9-7-9---12------11-9-11--7--------------|
|-7---------------7-------------------------|
|-------------------------------------------|
|-------------------------------------------|



|-------------------------------------------|
|------------10-----12-10-12---15-----------|
|----11-9-11-----7--------------------------|
|-7-----------------------------------------|
|-------------------------------------------|
|-------------------------------------------|




|-------------------------------------------|
|-15-14--12--10-----------------------------|
|----------------11--7--7-9~~~~~~-----------|
|-------------------------------------------|
|-------------------------------------------|
|-------------------------------------------|




|-------------------------------------------|
|-------------------------------------------|
|-------------------------------------------|
|--14~~--14-16~~17~~------------------------|
|-------------------------------------------|
|-------------------------------------------|






|----14----14--17-------19-17-19---22-------|
|-------17----------------------------------|
|-14-----------------19---------------------|
|-------------------------------------------|
|-------------------------------------------|
|-------------------------------------------|

|-22-21--19-17------------------------------|
|--------------19--------17--15--15---------|
|-----------------19--19--------------------|
|-------------------------------------------|
|-------------------------------------------|
|-------------------------------------------|












|-------------------------------------------|
|-12---10-----------------------------------|
|----------12----11-------------------------|
|-------------------------------------------|
|-------------------------------------------|
|-------------------------------------------|

|-17-22-17-22-21-17-22-21-17--17~~~~--------|
|-------------------------------------------|
|-------------------------------------------|
|-------------------------------------------|
|-------------------------------------------|
|-------------------------------------------|

|-------------------------------------------|
|-------------------------------------------|
|-14-14-14-14-14-14-14-14~~~~---------------|
|-------------------------------------------|
|-------------------------------------------|
|-------------------------------------------|

|-------------------------------------------|
|----17----17-14----17-14-------------------|
|-14----14-------14------14-14~~~~~~--------|
|-------------------------------------------|
|-------------------------------------------|
|-------------------------------------------|

|-------------------------------------------|
|-----------------------15~~~~--------------|
|--14-14-14-14-14-14-14---------------------|
|-------------------------------------------|
|-------------------------------------------|
|-------------------------------------------|

|----15----15-14----15-14-------------------|
|-15----15-------15-------15--15~~~~~~------|
|-------------------------------------------|
|-------------------------------------------|
|-------------------------------------------|
|-------------------------------------------|

|-------------------------------------------|
|-12-12-12-12-12-12-12----------------------|
|----------------------14~~~~---------------|
|-------------------------------------------|
|-------------------------------------------|
|-------------------------------------------|

|-------------------------------------------|
|-------------------------------------------|
|-------------------------------------------|
|----12----12-11----12-11-------------------|
|-12----12-------12-------12-12~~~~---------|
|-------------------------------------------|


|-------------------------------------------|
|-12-12-12-12-12-12-12----------------------|
|-------------------------------------------|
|-------------------------------------------|
|-------------------------------------------|
|-------------------------------------------|



|-------------------------------------------|
|-------------------------------------------|
|-------------------------------------------|
|---12--12----------------------------------|
|-12--12---12~~~~~~-------------------------|
|-------------------------------------------|


|-------------------------------------------|
|-------------------------------------------|
|-10~~---12~~-------------------------------|
|-----------~---12~~------------------------|
|-------------------------------------------|
|-------------------------------------------|



|-------------------------------------------|
|-------------------------------------------|
|-------------------------------------------|
|-------------------------------------------|
|---5----------5----------------------------|
|-5---5------5---5--------------------------|
Добавлено: 01.05.2015
Другие материалы по этой песне:
  • Аккорды и текст

Страница создана 01.05.2015
http://primanota.ru/ennio-morricone/la-missione-san-antonio-chords.htm
Привет, Гость.
Предлагаем пройти революционный курс по гитаре.
Подарок от PrimaNota.Ru, забирай!