PrimaNota.ru - самый крупный в мире бесплатный архив песенных текстов, аккордов, табулатур и нот


Ennio Morricone - Morte Di Un Soldato - таба, видео

Регистрация Запомнить меня
Войти через:  Facebook Google Twitter Vk Yandex Mail.ru

Ennio Morricone - Morte Di Un Soldato - таба, видео

Печатать
Просмотров: 137
Morte di un Soldato from The Good The Bad & The Ugly

Ennio Morricone

Tabbed by ScreamOfSilence

Tuning: (E A D G B E)


Harmonica and voices adapted to guitar

|-14--17-15-14-14---------------------------|
|-----------------15----15--15-17-15-15-14--|
|-------------------------------------------|
|-------------------------------------------|
|-------------------------------------------|
|-------------------------------------------|
|
|-------------------------------------------|
|-------------------------------------------|
|-------------------------------------------|
|-4---7-5--4--4-----------------------------|
|-----------------5~-----5~~-5--7--5--5--4~-|
|-------------------------------------------|



|-15--15-17-15-15---------------------------|
|-----------------17------17-17-19-17-17-15-|
|-------------------------------------------|
|-------------------------------------------|
|-------------------------------------------|
|-------------------------------------------|
|
|-------------------------------------------|
|-------------------------------------------|
|-------------------------------------------|
|-5~~-5--7--5--5----------------------------|
|-----------------7~--------7~-7-9--7-7-5~--|
|-------------------------------------------|




|-17-17-19-17-17----------------------------|
|----------------19--20--20--22-20-20-17----|
|-------------------------------------------|
|-------------------------------------------|
|-------------------------------------------|
|-------------------------------------------|
|
|-------------------------------------------|
|-------------------------------------------|
|-------------------------------------------|
|-7--7--9--7--7-----------------------------|
|-----------------9--10-10--12--10-10--7----|
|-------------------------------------------|


|-------------------------------------------|
|-19--19-20-19-19-15--17-17-15-15-----------|
|-------------------------------------------|
|-------------------------------------------|
|-------------------------------------------|
|-------------------------------------------|
|
|-------------------------------------------|
|-------------------------------------------|
|-------------------------------------------|
|-------------------------------------------|
|-9----9--10-9--9--5---7--7--5--5-----------|
|-------------------------------------------|



|-14--17-15-14-14---------------------------|
|-----------------15--15-15-17-15-15-14--15-|
|-------------------------------------------|
|-------------------------------------------|
|-------------------------------------------|
|-------------------------------------------|
|
|-------------------------------------------|
|-------------------------------------------|
|-------------------------------------------|
|-4~~--7--5--4-4----------------------------|
|-----------------5~---5--5--7---5--5--4--5-|
|-------------------------------------------|



Violin part 
|---------------------------|
|---------------------------|
|-----------7--9------------|
|-7--9--11------------------|
|-----------------9--9------|
|---------------------------|




Trumpet part adapted to guitar
|-------------------------------------------|
|------------10-----------------------------|
|----11-9-11-------11-9-7-------------------|
|-7--------------7--------7-----------------|
|-------------------------------------------|
|-------------------------------------------|


|-------------------------------------------|
|-------------------------------------------|
|---9-7-9---12------11-9-11--7--------------|
|-7---------------7-------------------------|
|-------------------------------------------|
|-------------------------------------------|



|-------------------------------------------|
|------------10-----12-10-12---15-----------|
|----11-9-11-----7--------------------------|
|-7-----------------------------------------|
|-------------------------------------------|
|-------------------------------------------|




|-------------------------------------------|
|-15-14--12--10-----------------------------|
|----------------11--7--7-9~~~~~~--7--7-----|
|-------------------------------------------|
|-------------------------------------------|
|-------------------------------------------|



|-------------------------------------------|
|------------10-----12-10-12---15-----------|
|----11-9-11-----7--------------------------|
|-7-----------------------------------------|
|-------------------------------------------|
|-------------------------------------------|




|-------------------------------------------|
|-15-14--12--10-----------------------------|
|----------------11--7--7-9~~~~~~--7--7-----|
|-------------------------------------------|
|-------------------------------------------|
|-------------------------------------------|

Добавлено: 01.05.2015
Другие материалы по этой песне:
  • Аккорды и текст

Страница создана 01.05.2015
http://primanota.ru/ennio-morricone/morte-di-un-soldato-chords.htm
Привет, Гость.
Предлагаем пройти революционный курс по гитаре.
Подарок от PrimaNota.Ru, забирай!