PrimaNota.ru - самый крупный в мире бесплатный архив песенных текстов, аккордов, табулатур и нот


Ennio Morricone - Fruscio Di Foglie Verdi - аккорды и текст, видео

Регистрация Запомнить меня
Войти через:  Facebook Google Twitter Vk Yandex Mail.ru

Ennio Morricone - Fruscio Di Foglie Verdi - аккорды и текст, видео

Печатать
Просмотров: 115
Уроки эстрадного вокала в Санкт-Петербурге
Fruscio Di Foglie Verdi
Ennio Morricone
Fruscio di foglie verdi - Trio Junior (Ennio Morricone)
from the movie "teorema" by pasolini (1968)
tab by alexander rex

standard tuning


bass riff
e|---------------------------
B|--------------------------- listen to the song
G|--------------------------- for the correct timing
D|---------------------------
A|---------------------------
E|-8-10-10-11-8-8-10-8-10-11-

riff 2
e|---------
B|---------
G|---------
D|---------
A|---------
E|-8-10-11-





(intro)
Am Em 
Am Em

Am         Em
Fruscio di foglie verdi
Am            Em
quarlche mese fa
Am         Em
  un dolce giorno
Am           Em
  all 'improvviso
bass riff
lei disse redendo di amare me

(drum break)


Am         Em
Fruscio di foglie gialle
Am         Em
poco tempo fa
Am          Em
  un giorno freddo
Am             Em
  con gliocchi tristi
bass riff
per l'ultima volta mi saluto'

(short drum break)

G      A   G           F
disse che l'amore tra noi
D              E  Em/G Em/F# (drumbreak)
non era più un sagno

Am Em

Am         Em
Fruscio di foglie rosse
Am              Em
tutto intorno a me
Am            Em
  i grigio il viale
Am      Em
cammino solo
(bass riff)
le foglie bibigliano lei dov'é?

(drum break)

(solo)

Am Em

  Am       Em      Am      Em
e|---5-3-2-7-3-2-0-5-2-0-------
B|-----------------------3-5--- 
G|----------------------------- 
D|-----------------------------
A|-----------------------------
E|-----------------------------

   Am        Em  Am     Em
e|-----7-5-3-0----0-5-3-2-0-
B|---5----------------------
G|--------------------------
D|--------------------------
A|--------------------------
E|--------------------------

(bass riff)
le foglie bisbigliano lei dov'é?

(drum break)

Am Em
lei   dov'é?
Am Em
lei   dov'é?
Am Em
lei   dov'é?
Am Em
lei 
riff2     A
quando verrà?

04/2015
Добавлено: 02.10.2015
Другие материалы по этой песне:
  • Аккорды и текст

Страница создана 02.10.2015
http://primanota.ru/ennio-morricone/fruscio-di-foglie-verdi-chords.htm
Привет, Гость.
Предлагаем пройти революционный курс по гитаре.
Подарок от PrimaNota.Ru, забирай!