PrimaNota.ru - самый крупный в мире бесплатный архив песенных текстов, аккордов, табулатур и нот


Ennio Morricone - A Pistol For Ringo - таба, видео

Регистрация Запомнить меня
Войти через:  Facebook Google Twitter Vk Yandex Mail.ru

Ennio Morricone - A Pistol For Ringo - таба, видео

Печатать
Просмотров: 98
The melody of the whole song 


     H    H       Q    Q    Q    Q       Q    Q    H           Q    Q    Q    H          
E||------------|----------------------|---------------------|---------------------------|
B||--0----0----|--0----1----0---------|---------------------|------------0--------------|
G||------------|-----------------2----|--0----2----2--------|--0----2-------------------|
D||------------|----------------------|---------------------|-----------------0~--------|
A||------------|----------------------|---------------------|---------------------------|
E||------------|----------------------|---------------------|---------------------------|


  Q    Q    Q    Q       Q    H         Q       Q    Q    Q       Q    Q    Q    Q       H          
----------------------|----------------------|-----------------|--0-------------------|------------|
--0----1----0---------|-------5~--------5----|--5----3---------|-------3----0---------|------------|
-----------------2----|--0-------------------|-----------------|-----------------2----|--0~--------|
----------------------|----------------------|------------4----|----------------------|------------|
----------------------|----------------------|-----------------|----------------------|------------|
----------------------|----------------------|-----------------|----------------------|------------|


  Q    Q    H           Q    Q    Q    Q       Q    Q    H            Q    Q    Q    Q     
---------------------|----------------------|----------------------|------------2---------|
------------0--------|--1----0--------------|----------------------|--3----5---------3----|
--0----2-------------|------------2----0----|------------0~--------|----------------------|
---------------------|----------------------|--2----4--------------|----------------------|
---------------------|----------------------|----------------------|----------------------|
---------------------|----------------------|----------------------|----------------------|


  H         Q    Q       Q    Q    H            Q    Q    Q    Q        Q    Q    Q    Q      
----------------------|----------------------|------------2----------|--3----2---------------|
------------2----3----|--2----5--------------|--3----5---------3~----|------------5----3S----|
--4~------------------|------------4~--------|-----------------------|-----------------------|
----------------------|----------------------|-----------------------|-----------------------|
----------------------|----------------------|-----------------------|-----------------------|
----------------------|----------------------|-----------------------|-----------------------|


  W                   Q    Q    Q    Q       H         Q    Q       Q    Q    H          
-------------------|------------2---------|-----------------0----|--3----3----2~--------|
--5----------------|--3----5---------3----|------------3---------|----------------------|
-------------------|----------------------|--4~------------------|----------------------|
-------------------|----------------------|----------------------|----------------------|
-------------------|----------------------|----------------------|----------------------|
-------------------|----------------------|----------------------|----------------------|


  Q    Q    Q    H            Q    Q    Q    Q       W                   
---------------------------|----------------------|--------------------||
--5----3----2--------------|--3----2---------2----|--3~----------------||
-----------------4~--------|------------4---------|--------------------||
---------------------------|----------------------|--------------------||
---------------------------|----------------------|--------------------||
---------------------------|----------------------|--------------------||
Добавлено: 02.10.2015
Вам также может быть интересно:
Другие материалы по этой песне:
  • Аккорды и текст

Страница создана 02.10.2015
http://primanota.ru/ennio-morricone/pistol-for-ringo-chords.htm
Привет, Гость.
Предлагаем пройти революционный курс по гитаре.
Подарок от PrimaNota.Ru, забирай!