PrimaNota.ru - самый крупный в мире бесплатный архив песенных текстов, аккордов, табулатур и нот


Emarosa - Utah But Im Taller - таба, видео

Регистрация Запомнить меня
Войти через:  Facebook Google Twitter Vk Yandex Mail.ru

Emarosa - Utah But Im Taller - таба, видео

Печатать
Просмотров: 212
-------------------------------------------------------------------------------
                             Emarosa - Utah, But Im Taller.
-------------------------------------------------------------------------------
Tabbed by:you already know. its billy crowe.
Email:snowflake2131@yahoo.com

Tuning:Dadgbe(Drop D)
great band, new and old. Check out agraceful(Chris new band) or isles and 
new band even though he is still in emarosa.)


e|---------------------------------------------------------------------------|
B|---------------------------------------------------------------------------|
G|---------------------------------------------------------------------------|
D|-----7----5-----3----------------------------------------------------------|
A|---------------------7----5~~~---------------------------------------------|
D|-00----00---00----00---00--------------------------------------------------|

palm mute all of tha zeros.


e|---------------------------------------------------------------------------|
B|---------------------------------------------------------------------------|
G|---------------------------------------------------------------------------|
D|------7------5-------------------------------------------------------------|
A|------------------15-----13--------12+-------------------------------------|
D|-00-----00-----00------00------00------------------------------------------|
x2
pause.
E|
B|---------------------------------------------------------------------------|
G|---------------------------------------------------------------------------|
D|----12p0------10p0-----8p0-----7p0----5~-----------------------------------|
A|-0---------0----------0-------0--------0-----------------------------------|
D|-0---------0----------0-------0--------0-----------------------------------|

e|---------------------------------------------------------------------------|
B|--------------------------131313-------------------------------------------|
G|--------------------------101010-------------------------------------------|
D|---12p0-----10p0-----------------------------------------------------------|
A|-0-------0--------0-0-0----------------------------------------------------|
D|-0-------0--------0-0-0----------------------------------------------------|

e|---------------------------------------------------------------------------|
B|----------------131313131313-----------------------------------------------|
G|----------------101010101010-----------------------------------------------|
D|---12p0---10p0-------------------------------------------------------------|
A|-0------0------------------------------------------------------------------|
D|-0------0------------------------------------------------------------------|

e|---------------------------------------------------------------------------|
B|---------------------------------------------------------------------------|
G|------3~-------2-------3----3p2-------7p5----------------------------------|
D|0-0-0----0-0-0---0-0-0-----------------------------------------------------|
A|0-0-0----0-0-0---0-0-0-----------------------------------------------------|
D|0-0-0----0-0-0---0-0-0----0-------0----------------------------------------|
x2

e|--------------------------------------------------------------------------|
B|--------------------------------------------------------------------------|
G|--------------------------------------------------------------------------|
D|000--0-0-0-0-0------------------------------------------------------------|
A|000--0-0-0-0-0------------------------------------------------------------|
E|000--0-0-0-0-0------------------------------------------------------------|

e|---------------------------------------------------------------------------|
B|---------------------------------------------------------------------------|
G|---------------------------------------------------------------------------|
D|00-00-00--99-99-99---------------------------------------------------------|
A|00-00-00--99-99-99---------------------------------------------------------|
D|00-00-00--99-99-99---------------------------------------------------------|
x3 i think
e|---------------------------------------------------------------------------|
B|---------------------------------------------------------------------------|
G|--77777777----1414141414141414---------------------------------------------|
D|--xxxxxxxx----xxxxxxxxxxxxxxxx---------------------------------------------|
A|--55555555----1212121212121212---------------------------------------------|
D|---------------------------------------------------------------------------|

e|---------------------------------------------------------------------------|
B|---------------------------------------------------------------------------|
G|---------------------------------------------------------------------------|
D|--oo-2h3-2-00-2h3-2-00-2h3-2-2/5-3-2~~-------------------------------------|
A|---------------------------------------------------------------------------|
D|---------------------------------------------------------------------------|
its my first tab so be eazy. more to come, maybe. let me know if it s wrong.

| /  slide up
| \  slide down
| h  hammer-on
| p  pull-off
| ~  vibrato
| +  harmonic
| x  Mute note
===============================================================================
Добавлено: 14.07.2012
Другие материалы по этой песне:
  • Аккорды и текст

Страница создана 14.07.2012
http://primanota.ru/emarosa/utah-but-im-taller-chords.htm
Привет, Гость.
Предлагаем пройти революционный курс по гитаре.
Подарок от PrimaNota.Ru, забирай!