PrimaNota.ru - самый крупный в мире бесплатный архив песенных текстов, аккордов, табулатур и нот


Electric Six - The Afterlife - таба, видео

Регистрация Запомнить меня
Войти через:  Facebook Google Twitter Vk Yandex Mail.ru

Electric Six - The Afterlife - таба, видео

Печатать
Просмотров: 126
-------------_-----------------------------------------------------
          (o   o)          The Afterlife - Electric Six
-------- (o     o) ------------------------------------------------
          (oo o )
            | 'o'
Tabbed by   | |NATURIST     Email: ItsOnlyNaturist@gmail.com

Tab includes some synth and bass transpositions. Also assumes use of
thumb to fret some bass notes.

(0:01)
   1   .   2   .   3   .   4   .   1   .   2   .   3   .   4   .
e|-----------------------------------------------------------------|
B|-----------------------------------------------------------------|
G|-----------------------------------------------------------------|
D|-------------5~~~~~~(5)--X---5~~~~~~---------5~~~~~~--------(5)--|
A|-6~~~~~~(6)------------------------------------------------------|
E|-----------------------------------------------------------------|

   1   .   2   .   3   .   4   .   1   .   2   .   3   .   4   .
e|-----------------------------------------------------------------|
B|-----------------------------------------------------------------|
G|-------------------------7~~~~~~~~~~~~~~(7)-----(7)-----(7)------|
D|-------------5~~~~~~(5)---------------------(5)-----(5)----------|
A|-6~~~~~(6)-------------------------------------------------------|
E|-----------------------------------------------------------------|

(0:15)
   1   .   2   .   3   .   4   .   1   .   2   .   3   .   4   .
e|-----------------------------------------------------------------|
B|-----------------------------------------------------------------|
G|-----------------------------------------------------------------|
D|---------X---5~~~~~~~~~~-X-------5~~~~~~-X---5~~~~~~~~~~-X-------|
A|-6~~~~~~-X---6-~~~~~~~~~-X-------6~~~~~~-X---6~~~~~~~~~~-X-------|
E|---------X---6~~~~~~~~~~-X-------6~~~~~~-X---6~~~~~~~~~~-X-------|

   1   .   2   .   3   .   4   .   1   .   2   .   3   .   4   .
e|-----------------------------------------------------------------|
B|-----------------------------------------------------------------|
G|--------X----------------7~~~~~~~7~~~~~~-X---7~~~~~~~~~~-X-------|
D|--------X----5~~~~~~~~~~(5)------5~~~~~~-X---5~~~~~~~~~~-X-------|
A|-6~~~~~-X----3~~~~~~~~~~(3)-----(3)------X--(3)----------X-------|
E|-----------------------------------------------------------------|

(0:23)
   1   .   2   .   3   .   4   .   1   .   2   .   3   .   4   .
e|-----------------------------------------------------------------|
B|-11~~~~~~13~~~~~~11~~~~~~13~~~~~~11~~~~~~13~~~~~~11~~~~~~13~~~~~~|
G|-----12~~~~~~12~~~~~~12~~~~~~12~~~~~~12~~~~~~12~~~~~~12~~~~~~12~~|
D|-----------------------------------------------------------------|
A|-----------------------------------------------------------------|
E|-----------------------------------------------------------------|

   1   .   2   .   3   .   4   .   1   .   2   .   3   .   4   .
e|-----------------------------------------------------------------|
B|-11~~~~~~13~~~~~~11~~~~~~13~~~~~~11~~~~~~13~~~~~~11~~~~~~13~~~~~~|
G|-----12~~~~~~12~~~~~~12~~~~~~12~~~~~~12~~~~~~12~~~~~~12~~~~~~12~~|
D|-----------------------------------------------------------------|
A|-----------------------------------------------------------------|
E|-----------------------------------------------------------------|

(0:30)
   1   .   2   .   3   .   4   .   1   .   2   .   3   .   4   .
e|-------------8~~~~~~~~~~~~~~~~~~~~~~~~~~~~~~~~~~~~~~~~~~~--------|
B|-------------8~~~~~~~~~~~~~~~~~~~~~~~~~~~~~~~~~~~~~~~~~~~--------|
G|-8~~~~~~~~~~~10~~~~~~~~~~~~~~~~~~~~~~~~~~~~~~~~~~~~~~~~~~--------|
D|-10~~~~~~~~~~10~~~~~~~~~~~~~~~~~~~~~~~~~~~~~~~~~~~~~~~~~~--------|
A|-10~~~~~~~~~~8~~~~~~~~~~~~~~~~~~~~~~~~~~~~~~~~~~~~~~~~~~~--------|
E|-8~~~~~~~~~~~-------------------------------------------(8)~~~~~~|

   1   .   2   .   3   .   4   .   1   .   2   .   3   .   4   .
e|-------------8~~~~~~~~~~~8~~~~~~~~~~~~~~~~~~~~~~~~~~~~~~---------|
B|-------------8~~~~~~~~~~~6~~~~~~~~~~~~~~~~~~~~~~~~~~~~~~---------|
G|-8~~~~~~~~~~~10~~~~~~~~~~7~~~~~~~~~~~~~~~~~~~~~~~~~~~~~~---------|
D|-10~~~~~~~~~~10~~~~~~~~~~5~~~~~~~~~~~~~~~~~~~~~~~~~~~~~~---------|
A|-10~~~~~~~~~~8~~~~~~~~~~~----------------------------------------|
E|-8~~~~~~~~~~~-------------------------------------------(8)~~~~~~|

(0:45)
   4   .
e|---------|
B|---------|
G|-12~~~~~~|
D|---------|
A|---------|
E|---------|

   1   .   2   .   3   .   4   .   1   .   2   .   3   .   4   .
e|-----------------------------------------------------------------|
B|-11~~~~~~~~~~13~~~~~~~~~~~~~~~~~~~~~~~~~~~~~~~~~~~~~~~~~~--------|
G|---------------------------------------------------------12~~~~~~|
D|-----------------------------------------------------------------|
A|-----------------------------------------------------------------|
E|-----------------------------------------------------------------|

   1   .   2   .   3   .   4   .   1   .   2   .   3   .   4   .
e|-------------10~~11~~~~10~~~~----10~~~~~~~~~~~~~~~~~~~~~~--------|
B|-11~~~~13~~~~----------------13p11-------------------------------|
G|---------------------------------------------------------12~~~~~~|
D|-----------------------------------------------------------------|
A|-----------------------------------------------------------------|
E|-----------------------------------------------------------------|

   1   .   2   .   3   .   4   .   1   .   2   .   3   .   4   .
e|-----------------------------------------------------------------|
B|-11~~~~~~~~~~13~~~~~~~~~~~~~~~~~~~~~~~~~~~~~~~~~~~~~~~~~~--------|
G----------------------------------------------------------12~~~~~~|
D|-----------------------------------------------------------------|
A|-----------------------------------------------------------------|
E|-----------------------------------------------------------------|

   1   .   2   .   3   .   4   .   1   .   2   .   3   .   4   .
e|-------------10~~11~~~~10~~~~----15~~~~~~~~~~~~~~~~~~~~~~~~~~~~~~|
B|-11~~~~13~~~~----------------13p11-------------------------------|
G|-----------------------------------------------------------------|
D|-----------------------------------------------------------------|
A|-----------------------------------------------------------------|
E|-----------------------------------------------------------------|

(1:00)
"Permanent smiles..."
   1   .   2   .   3   .   4   .   1   .   2   .   3   .   4   .
e|-10~~~~~~~~~~~~~~~~~~~~~~~~~~~~~~--------------------------------|
B|-X-------------------------------11~~~~~~~~~~~~~~~~~~~~~~~~~~~~~~|
G|-X-------------------------------10----10----10------------------|
D|-13----13----13------------------13----13----13------------------|
A|-13----13----13------------------13----13----13------------------|
E|-11----11----11------------------11----11----11------------------|
"Like two reptiles..."
   1   .   2   .   3   .   4   .   1   .   2   .   3   .   4   .
e|-8~~~~~~~~~~~~~~~~~~~~~~~~~~~~~~~8h101010--------8h101010--------|
B|-8-----8-----8-------------------8---8-8---------8---8-8---------|
G|-8-----8-----8-------------------8---------------8---------------|
D|-10----10----10------------------8---------------8---------------|
A|-10----10----10--------------------------------------------------|
E|-----------------------------------------------------------------|

(1:15)
"Reading and writing..."
   1   .   2   .   3   .   4   .   1   .   2   .   3   .   4   .
e|-----------------------------------------------------------------|
B|-13----13----13------13--13------13----13----13------13--13------|
G|-12----12----12------12--12------10----10----10------10--10------|
D|-13----13----13------13--13------13----13----13------13--13------|
A|-X-----X-----X-------X---X-------X-----X-----X-------X---X-------|
E|-11----11----11------11--11------11----11----11------11--11------|

   1   .   2   .   3   .   4   .   1   .   2   .   3   .   4   .
e|-8-----8-----8-------8---8-------8h101010--------8h10101010------|
B|-8-----8-----8-------8---8-------8---8-8---------8---8-8-8-------|
G|-8-----8-----8-------8---8-------8---------------8---------------|
D|-10----10----10------10--10------8---------------8---------------|
A|-10----10----10------10--10--------------------------------------|
E|-----------------------------------------------------------------|

(1:44)
   1   .   2   .   3   .   4   .   1   .   2   .   3   .   4   .
e|-13--------------------------------------------------------------|
B|-------------13--------------------------------------------------|
G|-----------------------------8-----------10--8-------------------|
D|-------------------------10--------------------------------------|
A|-----------------------------------------------------------------|
E|-----------------------------------------------------------------|

   1   .   2   .   3   .   4   .   1   .   2   .   3   .   4   .
e|-13--------------------------------------------------------------|
B|-------------13------------------------------9-------------------|
G|-----------------------------8-----------10----------------------|
D|-------------------------10--------------------------------------|
A|-----------------------------------------------------------------|
E|-----------------------------------------------------------------|

   1   .   2   .   3   .   4   .   1   .   2   .   3   .   4   .
e|-18--16----------------------------------------------------------|
B|---------18--16--------------------------------------------------|
G|-----------------------------8-----------10--8-------------------|
D|-------------------------10--------------------------------------|
A|-----------------------------------------------------------------|
E|-----------------------------------------------------------------|

   1   .   2   .   3   .   4   .   1   .   2   .   3   .   4   .
e|-16--15----------------------------------------------------------|
B|---------16----------------------------------9-------------------|
G|-------------17--------------8-----------10----------------------|
D|-------------------------10--------------------------------------|
A|-----------------------------------------------------------------|
E|-----------------------------------------------------------------|

(1:59)
   1   .   2   .   3   .   4   .   1   .   2   .   3   .   4   .
e|---------------------------------8~~~~~~~~~~~8~~~~~~~~~~~X-------|
B|---------------------------------8~~~~~~~~~~~8~~~~~~~~~~~X-------|
G|-8~~~~~~~~~~~10~~~~~~~~~~~~~~~~~~10~~~~~~~~~~10~~~~~~~~~~X-------|
D|-10~~~~~~~~~~10~~~~~~~~~~~~~~~~~~10~~~~~~~~~~10~~~~~~~~~~X-------|
A|-10~~~~~~~~~~8~~~~~~~~~~~~~~~~~~~8~~~~~~~~~~~8~~~~~~~~~~~X-------|
E|-8~~~~~~~~~~~----------------------------------------------------|

   1   .   2   .   3   .   4   .   1   .   2   .   3   .   4   .
e|-------------8~~~~~~~~~~~--------10~~~~~~~~~~10~~~~~~~~~---------|
B|-------------8~~~~~~~~~~~--------11~~~~~~~~~~11~~~~~~~~~---------|
G|-8~~~~~~~~~~~10~~~~~~~~~~--------12~~~~~~~~~~12~~~~~~~~~---------|
D|-10~~~~~~~~~~10~~~~~~~~~~--------12~~~~~~~~~~12~~~~~~~~~---------|
A|-10~~~~~~~~~~8~~~~~~~~~~~10~~~~~~10~~~~~~~~~~10~~~~~~~~~---------|
E|-8~~~~~~~~~~~------------10~~~~~~--------------------------------|

   1   .   2   .   3   .   4   .   1   .   2   .   3   .   4   .
e|---------------------------------8~~~~~~~~~~~8~~~~~~~~~~~X-------|
B|---------------------------------8~~~~~~~~~~~8~~~~~~~~~~~X-------|
G|-8~~~~~~~~~~~10~~~~~~~~~~~~~~~~~~10~~~~~~~~~~10~~~~~~~~~~X-------|
D|-10~~~~~~~~~~10~~~~~~~~~~~~~~~~~~10~~~~~~~~~~10~~~~~~~~~~X-------|
A|-10~~~~~~~~~~8~~~~~~~~~~~~~~~~~~~8~~~~~~~~~~~8~~~~~~~~~~~X-------|
E|-8~~~~~~~~~~~----------------------------------------------------|

   1   .   2   .   3   .   4   .   1   .   2   .   3   .   4   .
e|-------------8~~~~~~~~~~~--------8/101010~~~~----8/10101010------|
B|-------------8~~~~~~~~~~~--------8/111111~~~~----8/11111111------|
G|-8~~~~~~~~~~~10~~~~~~~~~~------------1212~~~~------12121212------|
D|-10~~~~~~~~~~10~~~~~~~~~~------------1212~~~~------12121212------|
A|-10~~~~~~~~~~8~~~~~~~~~~~10~~~~~~--------------------------------|
E|-8~~~~~~~~~~~------------10~~~~~~--------------------------------|

(2:14)
   1   .   2   .   3   .   4   .   1   .   2   .   3   .   4   .
e|-10~~~~~~----10~~~~~~~~~~----------------------------------------|
B|-X-----------X-------------------11~~~~~~----11~~~~~~~~~~--------|
G|-X-----------X-------------------10~~~~~~----10~~~~~~~~~~--------|
D|-13~~~~~~----13~~~~~~~~~~--------13~~~~~~----13~~~~~~~~~~--------|
A|-13~~~~~~----13~~~~~~~~~~--------13~~~~~~----13~~~~~~~~~~--------|
E|-11~~~~~~----11~~~~~~~~~~--------11~~~~~~----11~~~~~~~~~~--------|


   1   .   2   .   3   .   4   .   1   .   2   .   3   .   4   .
e|-8~~~~~~~----8~~~~~~~~~~~--------8/101010~~~~----8/10101010------|
B|-8~~~~~~~----8~~~~~~~~~~~--------8/111111~~~~----8/11111111------|
G|-8~~~~~~~----8~~~~~~~~~~~------------1212~~~~------12121212------|
D|-10~~~~~~----10~~~~~~~~~~------------1212~~~~------12121212------|
A|-10~~~~~~----10~~~~~~~~~~----------------------------------------|
E|-8~~~~~~~----8~~~~~~~~~~~----------------------------------------|


(2:28)
"Cleaning and scrubbing will greatly improve this..."
   1   .   2   .   3   .   4   .   1   .   2   .   3   .   4   .
e|-11----11----10------10--10------11----11----10------10--10------|
B|-X-----X-----X-------X---X-------X-----X-----X-------X---X-------|
G|-X-----X-----X-------X---X-------10----10----10------10--10------|
D|-13----13----13------13--13------13----13----13------13--13------|
A|-13----13----13------13--13------13----13----13------13--13------|
E|-11----11----11------11--11------11----11----11------11--11------|

   1   .   2   .   3   .   4   .   1   .   2   .   3   .   4   .
e|-11----11----10------10--10------8/101010--1010108/10101010------|
B|-13----13----13------13--13------8/111111--1111118/11111111------|
G|-12----12----12------12--12----------1212--121212----121212------|
D|-10----10----10------10--10----------1212--121212----121212------|
A|(10)--(10)--(10)----(10)(10)-------------------------------------|
E|-----------------------------------------------------------------|

(3:27)
   1   .   2   .   3   .   4   .   1   .   2   .   3   .   4   .
e|-10~~~~~~~~~~~~~~~~~~~~~~~~~~~~~~--------------------------------|
B|---------------------------------11~~~~~~~~~~~~~~~~~~~~~~~~~~~~~~|
G|-----------------------------------------------------------------|
D|-----------------------------------------------------------------|
A|-----------------------------------------------------------------|
E|-----------------------------------------------------------------|

   1   .   2   .   3   .   4   .   1   .   2   .   3   .   4   .
e|-----------------------------------------------------------------|
B|---------------------------------11~~~~~~~~~~~~~~~~~~~~~~~~~~~~~~|
G|-12~~~~~~~~~~~~~~~~~~~~~~~~~~~~~~--------------------------------|
D|-----------------------------------------------------------------|
A|-----------------------------------------------------------------|
E|-----------------------------------------------------------------|

KEY
---
/   slide up
\   slide down
~   let ring
b   bend
r   release bend
h   hammer-on
p   pull-off
v   vibrato
X   muted string
()  ghost / optional note
Добавлено: 25.07.2015
Другие материалы по этой песне:
  • Аккорды и текст

Страница создана 25.07.2015
http://primanota.ru/electric-six/afterlife-chords.htm
Привет, Гость.
Предлагаем пройти революционный курс по гитаре.
Подарок от PrimaNota.Ru, забирай!