PrimaNota.ru - самый крупный в мире бесплатный архив песенных текстов, аккордов, табулатур и нот


Electric Six - Gay bar - аккорды и текст, таба, бас-таба, видео

Регистрация Запомнить меня
Войти через:  Facebook Google Twitter Vk Yandex Mail.ru

Electric Six - Gay bar - аккорды и текст, таба, бас-таба, видео

Печатать
Просмотров: 1055
Авторы музыки: Tyler Spencer
Авторы текста: Tyler Spencer
Gay bar
Electric Six
		   Artist - Electric Six
Song - Gay Bar
Tabber - Matthew Cree
Email - tenaciouscree@hotmail.com

Main Riff
e|------------------------------------------|
b|------------------------------------------|
g|------------------------------------------|
d|-------15-17-15---------------------------|
a|-17-17----------17-16-15-15------15-16----|
e|----------------------------17-17------17-|

Solo1 Part 1
e|--------------------------------------------------|
b|--------------------------------------------------|
g|-12-12--14b14b14b14b-12--12--14b14b14b14b14b------|
d|-12-12--14b14b14b14b-12--12--14b14b14b14b14b---X3-|
a|--------------------------------------------------|
e|--------------------------------------------------|

Solo1 Part 1 Ending
e|--------------------------|
b|--------------------------|
g|-12-12-12-14-14-14--17b---|
d|-12-12-12-14-14-14--17b---|
a|--------------------------|
e|--------------------------|

Solo1 Part 2
e|----------------------------------------------|
b|----------------------------------------------|
g|-19-19-19-19-19-19-18b-17-17-17-17-17-17------|
d|-19-19-19-19-19-19-18b-17-17-17-17-17-17---X4-|
a|----------------------------------------------|
e|----------------------------------------------|

1st Part End
Chords - D, C, D (ring)

2nd Part Intro
e|---------------------------------|
b|---------------------------------|
g|-7-7-7b7b7b7b7h9p7-7-5-7-5-5-4---|
d|---------------------------------|
a|---------------------------------|
e|---------------------------------|

Solo2 Part 1
e|--------------------------------------------|
b|--------------------------------------------|
g|----------------12-----12-------------------|
d|-12-12-12-12-14----14-----14-12-14-12-14-X1-|
a|--------------------------------------------|
e|--------------------------------------------|

e|--------------------------------------------|
b|--------------------------------------------|
g|----------------12-----12-------------------|
d|-12-12-12-12-14----14-----14-12-14-12----X2-|
a|--------------------------------------14----|
e|--------------------------------------------|

e|-----------------------------|
b|-----------------------------|
g|----------------12----14b----|
d|-12-12-12-12-14----14-----X1-|
a|-----------------------------|
e|-----------------------------|

Solo2 Part2
e|-------------------------------------|
b|-------------------------------------|
g|-17-17-17h18b-17b17b17b17b17b17b-----|
d|-17-17-17h18b-17b17b17b17b17b17b-X4--|
a|-------------------------------------|
e|-------------------------------------|

End
Chord - D

Playing Order
Main Riff x7
Main Riff x3
Solo1 Part 1 + Ending
Solo1 Part 2
Main Riff x3
1st Part End
2nd Part Intro
Main Riff x3
1st Part End
Solo2 Part 1
Solo2 Part 2
Solo1 Part 2

Hope this sounds ok. sounded good to me. The 2nd Part Intro is a bit shakey, i did my best.
Peace     
Добавлено: 13.09.2013
Другие материалы по этой песне:

Страница создана 11.03.2012
http://primanota.ru/electric-six/gay-bar-chords.htm
Привет, Гость.
Предлагаем пройти революционный курс по гитаре.
Подарок от PrimaNota.Ru, забирай!