PrimaNota.ru - самый крупный в мире бесплатный архив песенных текстов, аккордов, табулатур и нот


Эллингтон Дюк - Aint Missbehavin - бас-таба, видео

Регистрация Запомнить меня
Войти через:  Facebook Google Twitter Vk Yandex Mail.ru

Эллингтон Дюк - Aint Missbehavin - бас-таба, видео

Печатать
Просмотров: 184
ain't missbehavin'

Basstab by Jan Bjorklund, Finland
 jani_bjorklund@yahoo.se>
You are welcome to request for basstabs!
Fingering and positions as suggested by TablEdit,
please use common sense!

TablEdited by Jan Bjorklund
Tuning : E A D G 	Time Signature: 4/4

 |       |       |       |        |       |       |   
   |        
|--------------------------------|--------------------------------|
|--------------------------------|----------------4---------------|
|6---------------7-------------7-|8-------------------------------|
|--------------------------------|--------------------------------|

 |       |       |       |        |       |       |   
   |        
|--------------------------------|----------------6---------------|
|5---------------5---------------|6-------------------------------|
|--------------------------------|--------------------------------|
|--------------------------------|--------------------------------|

 |       |       |       |        |       |       |   
   |        
|----------------5---------------|--------------------------------|
|--------------------------------|--------------------------------|
|6-------------------------------|8-------------8-----------------|
|--------------------------------|----------------6---------------|

 |       |       |       |        |       |       |   
   |        
|--------------------------------|--------------------------------|
|5-------------------------------|--------------------------------|
|--------------------------------|8-------------------------------|
|----------------8---------------|----------------6-------------6-|

 |       |       |       |        |       |       |   
   |        
|--------------------------------|--------------------------------|
|--------------------------------|----------------4---------------|
|6---------------7---------------|8-------------------------------|
|--------------------------------|--------------------------------|

 |       |       |       |        |       |       |   
   |        
|--------------------------------|--------------------------------|
|5---------------5---------------|6-------------------------------|
|--------------------------------|----------------4---------------|
|--------------------------------|--------------------------------|

 |       |       |       |        |       |       |   
   |        
|--------------------------------|--------------------------------|
|--------------------------------|----------------8---------------|
|6-------------------------------|8-------------------------------|
|----------------8-------------8-|--------------------------------|

 |       |       |       |        |       |       |   
   |        
|--------------------------------|--------------------------------|
|----------------6---------------|----------------5---------------|
|6-------------------------------|6-------------------------------|
|--------------------------------|--------------------------------|

 |       |       |       |        |       |       |   
   |        
|5-------------------------------|----------------8-------8-------|
|------------------------5-------|6-------6-----------------------|
|----------------6---------------|--------------------------------|
|--------8-----------------------|--------------------------------|

 |       |       |       |        |       |       |   
   |        
|--------------------------------|--------------------------------|
|--------------------------------|----------------5-------5-------|
|--------------------------------|--------------------------------|
|8-------5-------8-------8-------|8-------8-----------------------|

 |       |       |       |        |       |       |   
   |        
|------------------------7-------|5-------------------------------|
|----------------5---------------|--------5-----------------------|
|--------------------------------|----------------8-------8-------|
|6-------6-----------------------|--------------------------------|

 |       |       |       |        |       |       |   
   |        
|--------------------------------|--------5-----------------------|
|--------------------------------|--------------------------------|
|------------------------7-------|8-----------------------5-------|
|6-------6-------8---------------|----------------6---------------|

 |       |       |       |        |       |       |   
   |        
|--------------------------------|--------------------------------|
|--------------------------------|----------------4---------------|
|6---------------7---------------|8-------------------------------|
|--------------------------------|--------------------------------|

 |       |       |       |        |       |       |   
   |        
|--------------------------------|--------------------------------|
|5---------------5---------------|6-------------------------------|
|--------------------------------|----------------4---------------|
|--------------------------------|--------------------------------|

 |       |       |       |        |       |       |   
   |        
|--------------------------------|--------------------------------|
|--------------------------------|----------------8---------------|
|6-------------------------------|8-------------------------------|
|----------------8---------------|--------------------------------|

 |       |       |       |        |       |       |   
   |        
|--------------------------------|--------------------------------|
|--------------------------------|--------------------------------|
|6-------------6-----------------|8-------------------------------|
|----------------8---------------|----------------6---------------|

 |       |       |       |        |       |       |   
   |        
|--------------------------------|------------------------5-------|
|------------------------8-------|----------------4---------------|
|6-------6-------7---------------|8-------8-----------------------|
|--------------------------------|--------------------------------|

 |       |       |       |        |       |       |   
   |        
|--------------------------------|----------------6---------------|
|5-------8-------5-------5-------|6-------6---------------6-------|
|--------------------------------|--------------------------------|
|--------------------------------|--------------------------------|

 |       |       |       |        |       |       |   
   |        
|--------------------------------|--------------------------------|
|--------------------------------|------------------------------5-|
|6-------6---------------7-------|8-------------------------------|
|--------------8-----------------|--------8-------6-------6-------|

 |       |       |       |        |       |       |   
   |        
|----------------5---------------|--------------------------------|
|------------------------5-------|--------------------------------|
|--------6-----------------------|8-------8---------------8-----6-|
|--------------------------------|----------------6---------------|

 |       |       |       |        |       |       |   
   |        
|--------------------------------|--------5-----------------------|
|--------8---------------8-------|----------------4-------4-------|
|----------------7---------------|8-------------------------------|
|--------------------------------|--------------------------------|

 |       |       |       |        |       |       |   
   |        
|------------------------8-------|--------8-------6---------------|
|5-------8-------5---------------|6-----------------------6-------|
|--------------------------------|--------------------------------|
|--------------------------------|--------------------------------|

 |       |       |       |        |       |       |   
   |        
|--------------------------------|--------------------------------|
|------------------------5-------|--------------------------------|
|6-------6-----------------------|8-------8---------------8-------|
|----------------8---------------|----------------6---------------|

 |       |       |       |        |       |       |   
   |        
|------------------------8-------|--------------------------------|
|----------------6---------------|----------------5---------------|
|6-------6-----------------------|6-------6---------------6-------|
|--------------------------------|--------------------------------|

 |       |       |       |        |       |       |   
   |        
|5-------5-----------------------|----------------8-------8-------|
|----------------5-------5-------|6-------6-----------------------|
|--------------------------------|--------------------------------|
|--------------------------------|--------------------------------|

 |       |       |       |        |       |       |   
   |        
|----------------5-------5-------|--------------------------------|
|--------------------------------|------------------------5-------|
|--------------------------------|--------5-------7---------------|
|8-------8---------------------8-|--------------------------------|

 |       |       |       |        |       |       |   
   |        
|--------------------------------|------------------------5-------|
|8---------------5---------------|--------5-----------------------|
|--------8---------------5-------|----------------8---------------|
|------------------------------8-|--------------------------------|

 |       |       |       |        |       |       |   
   |        
|--------------------------------|--------5-----------------------|
|--------------------------------|--------------------------------|
|------------------------7-------|8-----------------------5-------|
|6-------6-------8---------------|----------------6---------------|

 |       |       |       |        |       |       |   
   |        
|--------------------------------|--------5---------------5-------|
|------------------------8-------|----------------4---------------|
|6-------6-------7---------------|8-------------------------------|
|--------------------------------|--------------------------------|

 |       |       |       |        |       |       |   
   |        
|--------------------------------|--------8-----------------------|
|5-------8-------5-------5-------|6-------------------------------|
|--------------------------------|----------------4-------4-------|
|--------------------------------|--------------------------------|

 |       |       |       |        |       |       |   
   |        
|--------------------------------|--------------------------------|
|--------------------------------|--------------------------------|
|6-------6---------------7-------|8-------8-----------------------|
|----------------8---------------|----------------6-------6-------|

 |       |       |       |        |       |       |   
   |        
|--------------------------------|--------5-----------------------|
|--------------------------------|--------------------------------|
|6-------6---------------7-----8-|------------------------8-------|
|----------------8---------------|----------------6---------------|

 |       |       |       |        |       |       |   
   |        
|--------------------------------|--------------------------------|
|--------------------------------|----------------4---------------|
|6---------------7---------------|8-------------------------------|
|--------------------------------|--------------------------------|

 |       |       |       |        |       |       |   
   |        
|--------------------------------|--------------------------------|
|5---------------5---------------|6-------------------------------|
|--------------------------------|----------------4---------------|
|--------------------------------|--------------------------------|

 |       |       |       |        |       |       |   
   |        
|--------------------------------|--------------------------------|
|--------------------------------|--------------------------------|
|6-------------------------------|8-------------8-----------------|
|----------------8-------------8-|----------------6---------------|

 |       |       |       |        |       |       |   
   |        
|----------------5---------------|--------------------------------|
|5-------------------------------|--------------------------------|
|--------------------------------|8-------------------------------|
|--------------------------------|----------------6---------------|

 |       |       |       |        |       |       |   
   |        
|--------------------------------|--------------------------------|
|--------------------------------|----------------4---------------|
|6---------------7---------------|8-------------------------------|
|--------------------------------|--------------------------------|

 |       |       |       |        |       |       |   
   |        
|--------------------------------|----------------6---------------|
|5---------------5---------------|6-------------------------------|
|--------------------------------|--------------------------------|
|--------------------------------|--------------------------------|

 |       |       |       |        |       |       |   
   |        
|--------------------------------|--------------------------------|
|--------------------------------|----------------8---------------|
|6-------------------------------|8-------------------------------|
|----------------8---------------|--------------------------------|

 |       |       |       |        |       |       |   
   |        
|--------------------------------|--------------------------------|
|----------------6---------------|----------------5---------------|
|6-------------------------------|6-------------------------------|
|--------------------------------|--------------------------------|

 |       |       |       |        |       |       |   
   |        
|--------------------------------|----------------8-------8-------|
|----------------5-------5-------|6-------6-----------------------|
|--------------------------------|--------------------------------|
|8-------8-----------------------|--------------------------------|

 |       |       |       |        |       |       |   
   |        
|--------------------------------|5-------------------------------|
|--------------------------------|------------------------5-------|
|--------------------------------|----------------7---------------|
|8-------5-------8-------8-------|--------8-----------------------|

 |       |       |       |        |       |       |   
   |        
|--------------------------------|------------------------5-------|
|----------------5-------5-------|--------------------------------|
|--------8-----------------------|--------------8-----------------|
|6-------------------------------|8-------8-----------------------|

 |       |       |       |        |       |       |   
   |        
|--------------------------------|--------------------------------|
|------------------------5-------|--------------------------------|
|--------------------------------|8-------------------------------|
|6-------6-------8---------------|--------8-----6---------6-------|

 |       |       |       |        |       |       |   
   |        
|--------------------------------|--------------------------------|
|--------------------------------|----------------4---------------|
|6---------------7---------------|8-------------------------------|
|--------------------------------|--------------------------------|

 |       |       |       |        |       |       |   
   |        
|--------------------------------|--------------------------------|
|5---------------5-------------5-|6-------------------------------|
|--------------------------------|----------------4---------------|
|--------------------------------|--------------------------------|

 |       |       |       |        |       |       |   
   |        
|--------------------------------|--------------------------------|
|--------------------------------|--------------------------------|
|6-------------------------------|8-------------------------------|
|----------------8---------------|----------------6---------------|

 |       |       |       |        |       |       |   
   |        
|--------------------------------|--------------------------------|
|--------------------------------|--------------------------------|
|6-------------------------------|8-------------------------------|
|----------------8---------------|----------------6---------------|

 |       |       |       |        
|--------------------------------|
|--------------------------------|
|6-----------------------------6-|
|--------------------------------|




Created with TablEdit http://www.tabledit.com/
     
Добавлено: 22.08.2013
Другие материалы по этой песне:
  • Аккорды и текст

Страница создана 22.08.2013
http://primanota.ru/duke-ellington/aint-missbehavin-chords.htm
Привет, Гость.
Предлагаем пройти революционный курс по гитаре.
Подарок от PrimaNota.Ru, забирай!