PrimaNota.ru - самый крупный в мире бесплатный архив песенных текстов, аккордов, табулатур и нот


Эллингтон Дюк - It Don't Mean a Thing - текст песни, бас-таба, видео

Регистрация Запомнить меня
Войти через:  Facebook Google Twitter Vk Yandex Mail.ru

Эллингтон Дюк - It Don't Mean a Thing - текст песни, бас-таба, видео

Печатать
Просмотров: 665
duke ellington_it dont mean a thing

Basstab by Jan Bjorklund, Finland
 jani_bjorklund@yahoo.se>
You are welcome to request for basstabs!
Fingering and positions as suggested by TablEdit,
please use common sense!

TablEdited by Jan Bjorklund
Tuning : E A D G 	Time Signature: 4/4

 |               |               |               |    
           
|----------------------------------------------------------------|
|5---------------5---------------4---------------4---------------|
|----------------------------------------------------------------|
|----------------------------------------------------------------|

 |               |               |               |    
           
|----------------------------------------------------------------|
|3---------------3-----------------------------------------------|
|--------------------------------7---------------7---------------|
|----------------------------------------------------------------|

 |               |               |               |    
           
|----------------------------------------------------------------|
|------------------------------------------------4---------------|
|6---------------6---------------5-------------------------------|
|----------------------------------------------------------------|

 |               |               |               |    
           
|--------------------------------3-------------------------------|
|5---------------7---------5---------------------5---------------|
|----------------------------------------------------------------|
|----------------------------------------------------------------|

 |               |               |               |    
           
|--------------------------------5-------------------------------|
|----------------5-------------------------------5---------------|
|3-------------------------3-------------------------------------|
|----------------------------------------------------------------|

 |               |               |               |    
           
|--------------------------------6-------------------------------|
|----------------5-------------------------------5---------------|
|4-------------------------4-------------------------------------|
|----------------------------------------------------------------|

 |               |               |               |    
           
|----------------3---------------7---------------3---------------|
|----------------------------------------------------------------|
|5-------------------------5-------------------------------------|
|----------------------------------------------------------------|

 |               |               |               |    
           
|----------------5---------------7---------------5---------------|
|----------------------------------------------------------------|
|5-------------------------5-------------------------------------|
|----------------------------------------------------------------|

 |               |               |               |    
           
|----------------------------------------------------------------|
|5---------------5---------------4---------------4---------------|
|----------------------------------------------------------------|
|----------------------------------------------------------------|

 |               |               |               |    
           
|----------------------------------------------------------------|
|3---------------3-----------------------------------------------|
|--------------------------------7---------------7---------------|
|----------------------------------------------------------------|

 |               |               |               |    
           
|----------------------------------------------------------------|
|------------------------------------------------4---------------|
|6---------------6---------------5-------------------------------|
|----------------------------------------------------------------|

 |               |               |               |    
           
|--------------------------------3-------------------------------|
|5---------------7---------5---------------------5---------------|
|----------------------------------------------------------------|
|----------------------------------------------------------------|

 |               |               |               |    
           
|--------------------------------5-------------------------------|
|----------------5-------------------------------5---------------|
|3-------------------------3-------------------------------------|
|----------------------------------------------------------------|

 |               |               |               |    
           
|--------------------------------6-------------------------------|
|----------------5-------------------------------5---------------|
|4-------------------------4-------------------------------------|
|----------------------------------------------------------------|

 |               |               |               |    
           
|----------------3---------------7---------------3---------------|
|----------------------------------------------------------------|
|5-------------------------5-------------------------------------|
|----------------------------------------------------------------|

 |               |               |               |    
           
|3---------------5---------3-----7---------------3---------------|
|----------------------------------------------------------------|
|----------------------------------------------------------------|
|----------------------------------------------------------------|

 |               |               |               |    
           
|----------------------------------------------------------------|
|3---------------5---------3-----6---------------7---------------|
|----------------------------------------------------------------|
|----------------------------------------------------------------|

 |               |               |               |    
           
|3---------------------------------------------------------------|
|----------------3-------------------------------3---------------|
|----------------------------------------------------------------|
|--------------------------------6-------------------------------|

 |               |               |               |    
           
|----------------3---------------8---------------7---------------|
|----------------------------------------------------------------|
|6-------------------------6-------------------------------------|
|----------------------------------------------------------------|

 |               |               |               |    
           
|5---------------3-----------------------------------------------|
|--------------------------------5-------------------------------|
|------------------------------------------------6---------------|
|----------------------------------------------------------------|

 |               |               |               |    
           
|--------------------------------3---------------4---------------|
|5---------------7---------5-------------------------------------|
|----------------------------------------------------------------|
|----------------------------------------------------------------|

 |               |               |               |    
           
|5---------------------------------------------------------------|
|----------------5-------------------------------5---------------|
|--------------------------------3-------------------------------|
|----------------------------------------------------------------|

 |               |               |               |    
           
|----------------------------------------------------------------|
|3---------------5---------3-----7---------------3---------------|
|----------------------------------------------------------------|
|----------------------------------------------------------------|

 |               |               |               |    
           
|----------------------------------------------------------------|
|--------------------------------4-------------------------------|
|5---------------7---------5---------------------5---------------|
|----------------------------------------------------------------|

 |               |               |               |    
           
|----------------------------------------------------------------|
|5---------------5---------------4---------------4---------------|
|----------------------------------------------------------------|
|----------------------------------------------------------------|

 |               |               |               |    
           
|----------------------------------------------------------------|
|3---------------3-----------------------------------------------|
|--------------------------------7---------------7---------------|
|----------------------------------------------------------------|

 |               |               |               |    
           
|----------------------------------------------------------------|
|----------------5-------------------------------4---------------|
|6-------------------------------5-------------------------5-----|
|----------------------------------------------------------------|

 |               |               |               |    
           
|--------------------------------3-------------------------------|
|5---------------7---------5---------------------5---------------|
|----------------------------------------------------------------|
|----------------------------------------------------------------|

 |               |               |               |    
           
|----------------------------------------------------------------|
|5-------------------------------5-------------------------------|
|----------------5-------------------------------5---------------|
|----------------------------------------------------------------|

 |               |               |               |    
           
|--------------------------------5-------------------------------|
|----------------5-------------------------------5---------------|
|3-------------------------3-------------------------------------|
|----------------------------------------------------------------|

 |               |               |               |    
           
|--------------------------------6-------------------------------|
|----------------5-------------------------------5---------------|
|4-------------------------4-------------------------------------|
|----------------------------------------------------------------|

 |               |               |               |    
           
|----------------5---------------7---------------5---------------|
|----------------------------------------------------------------|
|5---------------------------------------------------------------|
|----------------------------------------------------------------|

 |               |               |               |    
           
|----------------------------------------------------------------|
|5---------------5---------------4---------------4---------------|
|----------------------------------------------------------------|
|----------------------------------------------------------------|

 |               |               |               |    
           
|----------------------------------------------------------------|
|3---------------3-----------------------------------------------|
|--------------------------------7---------------7---------------|
|----------------------------------------------------------------|

 |               |               |               |    
           
|----------------------------------------------------------------|
|----------------5-------------------------------4---------------|
|6-------------------------------5-------------------------5-----|
|----------------------------------------------------------------|

 |               |               |               |    
           
|--------------------------------3-------------------------------|
|5---------------7-------------------------------5---------------|
|----------------------------------------------------------------|
|----------------------------------------------------------------|

 |               |               |               |    
           
|--------------------------------5-------------------------------|
|----------------5-------------------------------5---------------|
|3-------------------------3-------------------------------------|
|----------------------------------------------------------------|

 |               |               |               |    
           
|--------------------------------6-------------------------------|
|----------------5-------------------------------5---------------|
|4-------------------------4-------------------------------------|
|----------------------------------------------------------------|

 |               |               |               |    
           
|----------------3---------------7---------------3---------------|
|----------------------------------------------------------------|
|5-------------------------5-------------------------------------|
|----------------------------------------------------------------|

 |               |               |               |    
           
|----------------5---------------7---------------5---------------|
|----------------------------------------------------------------|
|5-------------------------5-------------------------------------|
|----------------------------------------------------------------|

 |               |               |               |    
           
|----------------------------------------------------------------|
|5---------------5---------------4---------------4---------------|
|----------------------------------------------------------------|
|----------------------------------------------------------------|

 |               |               |               |    
           
|----------------------------------------------------------------|
|3---------------3-----------------------------------------------|
|--------------------------------7---------------7---------------|
|----------------------------------------------------------------|

 |               |               |               |    
           
|----------------------------------------------------------------|
|------------------------------------------------4---------------|
|6---------------6---------------5-------------------------5-----|
|----------------------------------------------------------------|

 |               |               |               |    
           
|----------------------------------------------------------------|
|5---------------3-----------------------------------------------|
|--------------------------------6---------------5---------------|
|----------------------------------------------------------------|

 |               |               |               |    
           
|--------------------------------5-------------------------------|
|----------------5-------------------------------5---------------|
|3-------------------------3-------------------------------------|
|----------------------------------------------------------------|

 |               |               |               |    
           
|--------------------------------6-------------------------------|
|----------------5-------------------------------5---------------|
|4-------------------------4-------------------------------------|
|----------------------------------------------------------------|

 |               |               |               |    
           
|----------------3---------------5---------------3---------------|
|----------------------------------------------------------------|
|5-------------------------5-------------------------------------|
|----------------------------------------------------------------|

 |               |               |               |    
           
|3---------------------------------------------------------------|
|----------------------------------------------------------------|
|--------------------------------3---------------5---------------|
|----------------6-----------------------------------------------|

 |               |               |               |    
           
|----------------------------------------------------------------|
|3---------------5---------3-----6---------------7---------------|
|----------------------------------------------------------------|
|----------------------------------------------------------------|

 |               |               |               |    
           
|3---------------------------------------------------------------|
|----------------3-------------------------------3---------------|
|----------------------------------------------------------------|
|--------------------------------6-------------------------------|

 |               |               |               |    
           
|----------------3---------------8---------------7---------------|
|----------------------------------------------------------------|
|6-------------------------6-------------------------------------|
|----------------------------------------------------------------|

 |               |               |               |    
           
|5---------------3-----------------------------------------------|
|--------------------------------5-------------------------------|
|------------------------------------------------6---------------|
|----------------------------------------------------------------|

 |               |               |               |    
           
|----------------------------------------------------------------|
|5---------------3-----------------------------------------------|
|--------------------------------6---------------5---------------|
|----------------------------------------------------------------|

 |               |               |               |    
           
|----------------------------------------------------------------|
|----------------------------------------------------------------|
|3---------------5---------------6---------------7---------------|
|----------------------------------------------------------------|

 |               |               |               |    
           
|----------------------------------------------------------------|
|3---------------5---------3-----7---------------3---------------|
|----------------------------------------------------------------|
|----------------------------------------------------------------|

 |               |               |               |    
           
|----------------------------------------------------------------|
|----------------4---------------7---------------4---------------|
|5-------------------------5-------------------------------------|
|----------------------------------------------------------------|

 |               |               |               |    
           
|----------------3-------------------------------3---------------|
|5-------------------------------4-------------------------------|
|----------------------------------------------------------------|
|----------------------------------------------------------------|

 |               |               |               |    
           
|----------------3-------------------------------3---------------|
|3---------------------------------------------------------------|
|--------------------------------7-------------------------------|
|----------------------------------------------------------------|

 |               |               |               |    
           
|----------------3-------------------------------3---------------|
|----------------------------------------------------------------|
|6-------------------------------5-------------------------------|
|----------------------------------------------------------------|

 |               |               |               |    
           
|--------------------------------3-------------------------------|
|5---------------7---------5---------------------5---------------|
|----------------------------------------------------------------|
|----------------------------------------------------------------|

 |               |               |               |    
           
|----------------------------------------------------------------|
|5-------------------------------5-------------------------------|
|----------------5-------------------------------5---------------|
|----------------------------------------------------------------|

 |               |               |               |    
           
|--------------------------------5-------------------------------|
|----------------5-------------------------------5---------------|
|3-------------------------3-------------------------------------|
|----------------------------------------------------------------|

 |               |               |               |    
           
|--------------------------------6-------------------------------|
|----------------5-------------------------------5---------------|
|4-------------------------4-------------------------------------|
|----------------------------------------------------------------|

 |               |               |               |    
           
|----------------------------------------------------------------|
|--------------------------------4-------------------------------|
|5---------------7---------5---------------------5---------------|
|----------------------------------------------------------------|

 |               |               |               |    
           
|----------------------------------------------------------------|
|5---------------5---------------4---------------4---------------|
|----------------------------------------------------------------|
|----------------------------------------------------------------|

 |               |               |               |    
           
|----------------------------------------------------------------|
|3---------------3-----------------------------------------------|
|--------------------------------7---------------7---------------|
|----------------------------------------------------------------|

 |               |               |               |    
           
|----------------3-----------------------------------------------|
|------------------------------------------------7---------------|
|6-------------------------------5-------------------------5-----|
|----------------------------------------------------------------|

 |               |               |               |    
           
|--------------------------------3-------------------------------|
|5---------------7---------5---------------------5---------------|
|----------------------------------------------------------------|
|----------------------------------------------------------------|

 |               |               |               |    
           
|--------------------------------5-------------------------------|
|----------------5-------------------------------5---------------|
|3-------------------------3-------------------------------------|
|----------------------------------------------------------------|

 |               |               |               |    
           
|--------------------------------6-------------------------------|
|----------------5-------------------------------5---------------|
|4-------------------------4-------------------------------------|
|----------------------------------------------------------------|

 |               |               |               |    
           
|----------------3---------------5---------------3---------------|
|----------------------------------------------------------------|
|5-------------------------5-------------------------------------|
|----------------------------------------------------------------|

 |               |               |               |    
           
|----------------5---------------7---------------5---------------|
|----------------------------------------------------------------|
|5-------------------------5-------------------------------------|
|----------------------------------------------------------------|

 |               |               |               |    
           
|----------------------------------------------------------------|
|5---------------5---------------4---------------4---------------|
|----------------------------------------------------------------|
|----------------------------------------------------------------|

 |               |               |               |    
           
|----------------3-------------------------------3---------------|
|3---------------------------------------------------------------|
|--------------------------------7-------------------------------|
|----------------------------------------------------------------|

 |               |               |               |    
           
|----------------3-----------------------------------------------|
|------------------------------------------------7---------------|
|6-------------------------------5-------------------------5-----|
|----------------------------------------------------------------|

 |               |               |               |    
           
|--------------------------------3-------------------------------|
|5---------------7---------5---------------------5---------------|
|----------------------------------------------------------------|
|----------------------------------------------------------------|

 |               |               |               |    
           
|--------------------------------5-------------------------------|
|----------------5-------------------------------5---------------|
|3-------------------------3-------------------------------------|
|----------------------------------------------------------------|

 |               |               |               |    
           
|--------------------------------6-------------------------------|
|----------------5-------------------------------5---------------|
|4-------------------------4-------------------------------------|
|----------------------------------------------------------------|

 |               |               |               |    
           
|----------------3---------------5---------------3---------------|
|----------------------------------------------------------------|
|5-------------------------5-------------------------------------|
|----------------------------------------------------------------|

 |               |               |               |    
           
|3---------------------------------------------------------------|
|----------------------------------------------------------------|
|--------------------------------3---------------5---------------|
|----------------6-----------------------------------------------|

 |               |               |               |    
           
|----------------------------------------------------------------|
|3---------------5---------3-----6---------------7---------------|
|----------------------------------------------------------------|
|----------------------------------------------------------------|

 |               |               |               |    
           
|3---------------------------------------------------------------|
|----------------3-------------------------------3---------------|
|----------------------------------------------------------------|
|--------------------------------6-------------------------------|

 |               |               |               |    
           
|----------------3---------------8---------3-----7---------------|
|----------------------------------------------------------------|
|6-------------------------6-------------------------------------|
|----------------------------------------------------------------|

 |               |               |               |    
           
|5---------------3-----------------------------------------------|
|--------------------------------5-------------------------------|
|------------------------------------------------6---------------|
|----------------------------------------------------------------|

 |               |               |               |    
           
|--------------------------------3---------------4---------------|
|5---------------7---------5-------------------------------------|
|----------------------------------------------------------------|
|----------------------------------------------------------------|

 |               |               |               |    
           
|5---------------------------------------------------------------|
|----------------5-------------------------------5---------------|
|--------------------------------3-------------------------3-----|
|----------------------------------------------------------------|

 |               |               |               |    
           
|----------------------------------------------------------------|
|3---------------5---------------7---------------3---------------|
|----------------------------------------------------------------|
|----------------------------------------------------------------|

 |               |               |               |    
           
|----------------------------------------------------------------|
|--------------------------------4---------------7---------------|
|5---------------7---------5-------------------------------------|
|----------------------------------------------------------------|

 |               |               |               |    
           
|----------------------------------------------------------------|
|5-------------------------------4-------------------------------|
|----------------5-------------------------------5---------------|
|----------------------------------------------------------------|

 |               |               |               |    
           
|----------------------------------------------------------------|
|3---------------------------------------------------------------|
|----------------5---------------7---------------3---------------|
|----------------------------------------------------------------|

 |               |               |               |    
           
|----------------------------------------------------------------|
|----------------5-------------------------------4---------------|
|6-------------------------6-----5-------------------------5-----|
|----------------------------------------------------------------|

 |               |               |               |    
           
|--------------------------------3-------------------------------|
|5---------------7---------5---------------------5---------------|
|----------------------------------------------------------------|
|----------------------------------------------------------------|

 |               |               |               |    
           
|----------------------------------------------------------------|
|5-------------------------------5-------------------------------|
|----------------5-------------------------------5---------------|
|----------------------------------------------------------------|

 |               |               |               |    
           
|--------------------------------5-------------------------------|
|----------------5-------------------------------5---------------|
|3-------------------------3-------------------------------------|
|----------------------------------------------------------------|

 |               |               |               |    
           
|--------------------------------6-------------------------------|
|----------------5-------------------------------5---------------|
|4-------------------------4-------------------------------------|
|----------------------------------------------------------------|

 |               |               |               |    
           
|----------------5---------------7---------------5---------------|
|----------------------------------------------------------------|
|5-------------------------5-------------------------------------|
|----------------------------------------------------------------|

 |               |               |               |    
           
|----------------3-------------------------------3---------------|
|5-------------------------------4-------------------------------|
|----------------------------------------------------------------|
|----------------------------------------------------------------|

 |               |               |               |    
           
|----------------3-------------------------------3---------------|
|3---------------------------------------------------------------|
|--------------------------------7-------------------------------|
|----------------------------------------------------------------|

 |               |               |               |    
           
|----------------3-----------------------------------------------|
|------------------------------------------------4---------------|
|6-------------------------6-----5-------------------------5-----|
|----------------------------------------------------------------|

 |               |               |               |    
           
|--------------------------------3-------------------------------|
|5---------------7---------5---------------------5---------------|
|----------------------------------------------------------------|
|----------------------------------------------------------------|

 |               |               |               |    
           
|--------------------------------5-------------------------------|
|----------------5-------------------------------5---------------|
|3-------------------------3-------------------------------------|
|----------------------------------------------------------------|

 |               |               |               |    
           
|--------------------------------6-------------------------------|
|----------------5-------------------------------5---------------|
|4-------------------------4-------------------------------------|
|----------------------------------------------------------------|

 |               |               |               |    
           
|----------------5---------------7---------------5---------------|
|----------------------------------------------------------------|
|5-------------------------5-------------------------------------|
|----------------------------------------------------------------|

 |               |               |               |    
           
|----------------5---------------7---------------5---------------|
|----------------------------------------------------------------|
|5-------------------------5-------------------------------------|
|----------------------------------------------------------------|

 |               |               |               |    
           
|----------------3-------------------------------3---------------|
|5-------------------------------4-------------------------------|
|----------------------------------------------------------------|
|----------------------------------------------------------------|

 |               |               |               |    
           
|----------------3-------------------------------3---------------|
|3---------------------------------------------------------------|
|--------------------------------7-------------------------------|
|----------------------------------------------------------------|

 |               |               |               |    
           
|----------------3-----------------------------------------------|
|------------------------------------------------4---------------|
|6-------------------------6-----5-------------------------5-----|
|----------------------------------------------------------------|

 |               |               |               |    
           
|--------------------------------3-------------------------------|
|5---------------7---------5---------------------5---------------|
|----------------------------------------------------------------|
|----------------------------------------------------------------|

 |               |               |               |    
           
|--------------------------------5-------------------------------|
|----------------5-------------------------------5---------------|
|3-------------------------3-------------------------------------|
|----------------------------------------------------------------|

 |               |               |               |    
           
|--------------------------------6-------------------------------|
|----------------5-------------------------------5---------------|
|4-------------------------4-------------------------------------|
|----------------------------------------------------------------|

 |               |               |               |    
           
|----------------3---------------5---------------3---------------|
|----------------------------------------------------------------|
|5-------------------------5-------------------------------------|
|----------------------------------------------------------------|

 |               |               |               |    
           
|3---------------------------------------------------------------|
|----------------------------------------------------------------|
|--------------------------------3---------------5---------------|
|----------------6-----------------------------------------------|

 |               |               |               |    
           
|----------------------------------------------------------------|
|3---------------------------------------------------------------|
|----------------6---------------5---------------3---------------|
|----------------------------------------------------------------|

 |               |               |               |    
           
|----------------------------------------------------------------|
|------------------------------------------------3---------------|
|----------------3---------------5-------------------------------|
|6---------------------------------------------------------------|

 |               |               |               |    
           
|--------------------------------3-------------------------------|
|----------------5-------------------------------5---------------|
|6-------------------------6-------------------------------6-----|
|----------------------------------------------------------------|

 |               |               |               |    
           
|8---------------7---------------5---------------3---------------|
|----------5-----------------------------------------------------|
|----------------------------------------------------------------|
|----------------------------------------------------------------|

 |               |               |               |    
           
|--------------------------------3---------------4---------------|
|5---------------7---------5-------------------------------------|
|----------------------------------------------------------------|
|----------------------------------------------------------------|

 |               |               |               |    
           
|5---------------------------------------------------------------|
|----------------5-------------------------------5---------------|
|--------------------------------3-------------------------3-----|
|----------------------------------------------------------------|

 |               |               |               |    
           
|----------------------------------------------------------------|
|3---------------5---------3-----7---------------3---------------|
|----------------------------------------------------------------|
|----------------------------------------------------------------|

 |               |               |               |    
           
|----------------------------------------------------------------|
|--------------------------------4---------------7---------------|
|5---------------7---------5-------------------------------------|
|----------------------------------------------------------------|

 |               |               |               |    
           
|----------------3-------------------------------3---------------|
|5-------------------------------4-------------------------------|
|----------------------------------------------------------------|
|----------------------------------------------------------------|

 |               |               |               |    
           
|----------------3-------------------------------3---------------|
|3---------------------------------------------------------------|
|--------------------------------7-------------------------------|
|----------------------------------------------------------------|

 |               |               |               |    
           
|----------------------------------------------------------------|
|----------------5-------------------------------4---------------|
|6-------------------------------5-------------------------5-----|
|----------------------------------------------------------------|

 |               |               |               |    
           
|--------------------------------3-------------------------------|
|5---------------7---------5---------------------5---------------|
|----------------------------------------------------------------|
|----------------------------------------------------------------|

 |               |               |               |    
           
|----------------------------------------------------------------|
|5-------------------------------5-------------------------------|
|----------------5-------------------------------5---------------|
|----------------------------------------------------------------|

 |               |               |               |    
           
|--------------------------------5-------------------------------|
|----------------5-------------------------------5---------------|
|3-------------------------3-------------------------------------|
|----------------------------------------------------------------|

 |               |               |               |    
           
|--------------------------------6-------------------------------|
|----------------5-------------------------------5---------------|
|4-------------------------4-------------------------------------|
|----------------------------------------------------------------|

 |               |               |               |    
           
|----------------5---------------7---------------5---------------|
|----------------------------------------------------------------|
|5-------------------------5-------------------------------------|
|----------------------------------------------------------------|

 |               |               |               |    
           
|----------------6---------------7-------------------------------|
|----------------------------------------------------------------|
|4-----------------------------------------------5---------------|
|----------------------------------------------------------------|

 |               |               |               |    
           
|----------------------------------------------------------------|
|5---------------------------------------------------------------|
|----------------------------------------------------------------|
|----------------------------------------------------------------|


Created with TablEdit http://www.tabledit.com/


     
Добавлено: 04.09.2013
Другие материалы по этой песне:

Страница создана 05.06.2012
http://primanota.ru/duke-ellington/it-dont-mean-a-thing-chords.htm
Привет, Гость.
Предлагаем пройти революционный курс по гитаре.
Подарок от PrimaNota.Ru, забирай!