PrimaNota.ru - самый крупный в мире бесплатный архив песенных текстов, аккордов, табулатур и нот


Эллингтон Дюк - Take The Coltrane - таба, видео

Регистрация Запомнить меня
Войти через:  Facebook Google Twitter Vk Yandex Mail.ru

Эллингтон Дюк - Take The Coltrane - таба, видео

Печатать
Просмотров: 64
-------------------------------------------------------------------------------
                         Take The Coltrane - Duke Ellington
-------------------------------------------------------------------------------

  F7
e|----------------|----------------|----------------|----------------|
B|----------------|----------------|----------------|----------------|
G|------5-8-5-----|----------------|----------------|----------------|
D|------------6---|------5-8-5-----|----------------|----------------|
A|--------------8-|------------6---|7-8---------7-8-|----------------|
E|----------------|--------------8-|----------------|----------------|

  Bb7                               F7
e|----------------|----------------|----------------|----------------|
B|----------------|----------------|----------------|----------------|
G|------5-8-5-----|----------------|----------------|----------------|
D|------------6---|------5-8-5-----|----------------|----------------|
A|--------------8-|------------6---|7-8---------7-8-|----------------|
E|----------------|--------------8-|----------------|----------------|

  G7               C7               F7
e|----------------|----------------|----------------|----------------|
B|----------------|----------------|----------------|----------------|
G|------5-8-5-----|----------------|----------------|----------------|
D|------------6---|------5-8-5-----|----------------|----------------|
A|--------------8-|------------6---|7-8---------7-8-|----------------|
E|----------------|--------------8-|----------------|----------------|


****************************************
Tuning: Standard
Time: 4/4
Each - represents 1 sixteenth note.

Recommended Recording:
   Album: Duke Ellington & John Coltrane
   Year: 1963
****************************************
Добавлено: 24.05.2016
Другие материалы по этой песне:
  • Аккорды и текст

Страница создана 24.05.2016
http://primanota.ru/duke-ellington/take-coltrane-chords.htm
Привет, Гость.
Предлагаем пройти революционный курс по гитаре.
Подарок от PrimaNota.Ru, забирай!