PrimaNota.ru - самый крупный в мире бесплатный архив песенных текстов, аккордов, табулатур и нот


Эллингтон Дюк - Perdido - текст песни, бас-таба, видео

Регистрация Запомнить меня
Войти через:  Facebook Google Twitter Vk Yandex Mail.ru

Эллингтон Дюк - Perdido - текст песни, бас-таба, видео

Печатать
Просмотров: 171
Duke Ellington_Perdido

Basstab by Jan Bjorklund, Finland
 jani_bjorklund@yahoo.se>
You are welcome to request for basstabs!
Fingering and positions as suggested by TablEdit,
please use common sense!

TablEdited by Jan Bjorklund
Tuning : E A D G 	Time Signature: 4/4

  |               |               |               |   
             
|------------------------------------------------------------------|
|------------------------------------------------------------------|
|-----------------------------------------------------------8------|
|------------------------------------------------------------------|

  |               |               |               |   
             
|------------------------------------------------------------------|
|------------------------------------------------------------------|
|-6---------4------------------------------------------------------|
|-----------------------------------------------------------8------|

  |               |               |               |   
             
|------------------------------------------------------------------|
|------------------------------------------------------------------|
|-6---------8---------------------6---------8----------------------|
|---------------------------8-------------------------------6------|

  |               |               |               |   
             
|------------------------------------------------------------------|
|------------------------------------------------------------------|
|-5---------8------------------------------------------------------|
|-----------------------------------------------------------6------|

  |               |               |               |   
             
|------------------------------------------------------------------|
|------------------------------------------------------------------|
|-5---------8---------------------5---------8----------------------|
|---------------------------6-------------------------------8------|

  |               |               |               |   
             
|------------------------------------------------------------------|
|------------------------------------------------------------------|
|-6---------8------------------------------------------------------|
|-----------------------------------------------------------8------|

  |               |               |               |   
             
|---------------------7-----------5--------------------------------|
|------------------------------------------------------------------|
|-6---------8-----------------------------------------------8------|
|------------------------------------------------------------------|

  |               |               |               |   
             
|------------------------------------------------------------------|
|-5---------8------------------------------------------------------|
|------------------------------------------------------------------|
|---------------------------6-------------------------------4------|

  |               |               |               |   
             
|------------------------------------------------------------------|
|------------------------------------------------------------------|
|------------------------------------------------------------------|
|---------------------------3-------------------------------8------|

  |               |               |               |   
             
|------------------------------------------------------------------|
|-6---------5-------------------7-8-------------7-8----------------|
|---------------------------8--------------------------------------|
|------------------------------------------------------------------|

  |               |               |               |   
             
|------------------------------------------------------------------|
|-8---6------------------------------------------------------------|
|-----------8-----6---------4-------------------------------4------|
|-------------------------------------------6----------------------|

  |               |               |               |   
             
|------------------------------------------------------------------|
|------------------------------------------------------------------|
|-5---------8------------------------------------------------------|
|---------------------------5-------------------------------4------|

  |               |               |               |   
             
|------------------------------------------------------------------|
|------------------------------------------------------------------|
|------------------------------------------------------------------|
|---------------------------3--------------------------------------|

  |               |               |               |   
             
|------------------------------------------------------------------|
|------------------------------------------------------------------|
|-4----------------------------------------------------------------|
|-----------8-----------------------------------------------8------|

  |               |               |               |   
             
|---------------------7-----------5--------------------------------|
|------------------------------------------------------------------|
|-6---------8-----------------------------------------------8------|
|------------------------------------------------------------------|

  |               |               |               |   
             
|------------------------------------------------------------------|
|-5---------8-------------------------------------8----------------|
|---------------------------6--------------------------------------|
|------------------------------------------------------------------|

  |               |               |               |   
             
|-----------------4------------------------------------------------|
|------------------------------------------------------------------|
|-7-----------------------------------------------7----------------|
|---------------------------------5-----------5--------------------|

  |               |               |               |   
             
|------------------------------------------------------------------|
|------------------------------------------------------------------|
|-5-----------5---4---------------5---------5-----------------5----|
|------------------------------------------------------------------|

  |               |               |               |   
             
|------------------------------------------------------------------|
|-----------------7-------------------------------4----------------|
|-5-------------------------------8--------------------------------|
|------------------------------------------------------------------|

  |               |               |               |   
             
|---------------------------------4---------------7----------------|
|-5---------------7------------------------------------------------|
|-------------5-------------------------------5---------------5----|
|------------------------------------------------------------------|

  |               |               |               |   
             
|-------------------------------------------------7----------------|
|-----------------5---------------5--------------------------------|
|---------------------------------------------5---------------5----|
|-8-----------8----------------------------------------------------|

  |               |               |               |   
             
|------------------------------------------------------------------|
|-----------------5------------------------------------------------|
|---------------------------------7---------------5----------------|
|-8----------------------------------------------------------------|

  |               |               |               |   
             
|------------------------------------------------------------------|
|------------------------------------------------------------------|
|-----------------5---------------6---------------7----------------|
|-8----------------------------------------------------------------|

  |               |               |               |   
             
|------------------------------------------------------------------|
|-----------------8---------7---------------5----------------------|
|-8---------------------------------------------------------8------|
|------------------------------------------------------------------|

  |               |               |               |   
             
|------------------------------------------------------------------|
|------------------------------------------------------------------|
|-----------6---------------4--------------------------------------|
|-------------------------------------------7----------------------|

  |               |               |               |   
             
|------------------------------------------------------------------|
|-----------------------------------------------------------5------|
|-7---------8------------------------------------------------------|
|------------------------------------------------------------------|

  |               |               |               |   
             
|------------------------------------------------------------------|
|------------------------------------------------------------------|
|------------------------------------------------------------------|
|-----------------5---------------6---------------8-----------8----|

  |               |               |               |   
             
|------------------------------------------------------------------|
|------------------------------------------------------------------|
|-5---------------8---------------5---------------5----------------|
|-----------1-------------------------------------------------1----|

  |               |               |               |   
             
|---------------------------------8--------------------------------|
|-----------6-------------------------------------5----------------|
|-5----------------------------------------------------------------|
|------------------------------------------------------------------|

  |               |               |               |   
             
|-----------------5------------------------------------------------|
|---------------------------------5--------------------------------|
|-------------------------------------------------6----------------|
|-8----------------------------------------------------------------|

  |               |               |               |   
             
|------------------------------------------------------------------|
|------------------------------------------------------------------|
|-8---------8-------------------------------------8----------------|
|---------------------8-----------1--------------------------------|

  |               |               |               |   
             
|------------------------------------------------------------------|
|------------------------------------------------------------------|
|-4-----------------------------------------------8----------------|
|-----------------6-----------6---6--------------------------------|

  |               |               |               |   
             
|------------------------------------------------------------------|
|---------------------------------8--------------------------------|
|-----------------8-------------------------------8-------------4--|
|-6----------------------------------------------------------------|

  |               |               |               |   
             
|------------------------------------------------------------------|
|------------------------------------------------------------------|
|-----------------5-----------5-------------------4----------------|
|-8-------------------------------8--------------------------------|

  |               |               |               |   
             
|------------------------------------------------------------------|
|-----------------5------------------------------------------------|
|-------------------------------------------5-----------------5----|
|-8-----------3---------------3---5--------------------------------|

  |               |               |               |   
             
|------------------------------------------------------------------|
|------------------------------------------------------------------|
|-5-----------5---4---------------5---------------6-----------6----|
|------------------------------------------------------------------|

  |               |               |               |   
             
|------------------------------------------------------------------|
|---------------------------------5---------------5----------------|
|-5-----------5---8------------------------------------------------|
|---------------------------------------------3--------------------|

  |               |               |               |   
             
|------------------------------------------------------------------|
|------------------------------------------------------------------|
|---------------------------6---------------------8----------------|
|------------------------------------------------------------------|

  |               |               |               |   
             
|------------------------------------------------------------------|
|-4-------------------------6---------------6---------------7------|
|------------------------------------------------------------------|
|------------------------------------------------------------------|

  |               |               |               |   
             
|------------------------------------------------------------------|
|------------------------------------------------------------------|
|-----------------7------------------------------------------------|
|---------------------------------6-----------6---6----------------|

  |               |               |               |   
             
|------------------------------------------------------------------|
|-----------------4---------------5-----------5--------------------|
|-5-----------5----------------------------------------------------|
|-------------------------------------------------7----------------|

  |               |               |               |   
             
|------------------------------------------------------------------|
|-------------------------------------------------5----------------|
|-----------------5---------------6--------------------------------|
|-8-----------8-----------------------------------------------8----|

  |               |               |               |   
             
|------------------------------------------------------------------|
|-----------------5------------------------------------------------|
|---------------------------------4-----------4--------------------|
|-8-----------3---------------3-------------------5----------------|

  |               |               |               |   
             
|------------------------------------------------------------------|
|---------------------------------8--------------------------------|
|-----------------8-------------------------------8----------------|
|-6-------------------------------------------------------------7--|

  |               |               |               |   
             
|-------------------------------------------------7----------------|
|-----------------4---------------5-----------5--------------------|
|------------------------------------------------------------------|
|-6----------------------------------------------------------------|

  |               |               |               |   
             
|------------------------------------------------------------------|
|-------------------------------------------------4----------------|
|-3---------------4---------------3--------------------------------|
|---------------------------------------------2---------------2----|

  |               |               |               |   
             
|------------------------------------------------------------------|
|-----------------3---------------3-----------3--------------------|
|-3-----------3-----------------------------------0----------------|
|-----------------------------1------------------------------------|

  |               |               |               |   
             
|-3----------------------------------------------------------------|
|-----------------3------------------------------------------------|
|---------------------------------3--------------------------------|
|-------------------------------------------------5----------------|

  |               |               |               |   
             
|------------------------------------------------------------------|
|-8-----------------------------------------------8----------------|
|-----------------8---------------6--------------------------------|
|------------------------------------------------------------------|

  |               |               |               |   
             
|------------------------------------------------------------------|
|---------------------------------4---------------7----------------|
|-5---------------7------------------------------------------------|
|-------------5-------------------------------5---------------5----|

  |               |               |               |   
             
|------------------------------------------------------------------|
|------------------------------------------------------------------|
|-5-----------5---4-----------4---5---------------5----------------|
|------------------------------------------------------------------|

  |               |               |               |   
             
|-------------------------------------------------7----------------|
|-5-------------------------------5--------------------------------|
|-----------------5-----------5------------------------------------|
|------------------------------------------------------------------|

  |               |               |               |   
             
|---------------------------------4---------------7----------------|
|-5---------------7------------------------------------------------|
|------------------------------------------------------------------|
|------------------------------------------------------------------|

  |               |               |               |   
             
|-----------------5------------------------------------------------|
|---------------------------------5--------------------------------|
|-------------------------------------------------7----------------|
|-8----------------------------------------------------------------|

  |               |               |               |   
             
|---------------------------------5--------------------------------|
|-------------------------------------------------5----------------|
|-3-----------3---3------------------------------------------------|
|------------------------------------------------------------------|

  |               |               |               |   
             
|------------------------------------------------------------------|
|-3---------------3---------------3---------------3----------------|
|------------------------------------------------------------------|
|-------------1---------------1---------------1--------------------|

  |               |               |               |   
             
|------------------------------------------------------------------|
|-------------------------------------------3----------------------|
|------------------------------------------------------------------|
|-------------------------------------------------------------1----|

  |               |               |               |   
             
|------------------------------------------------------------------|
|-3---------------1------------------------------------------------|
|---------------------------------5---------------3----------------|
|-------------5----------------------------------------------------|

  |               |               |               |   
             
|------------------------------------------------------------------|
|-3-------------------------------1---------------4----------------|
|-----------------4------------------------------------------------|
|-------------2-------------------------------2---------------2----|

  |               |               |               |   
             
|------------------------------------------------------------------|
|-3-----------------------------------------------3----------------|
|-----------------3---------------5--------------------------------|
|------------------------------------------------------------------|

  |               |               |               |   
             
|---------------------------------4---------------7----------------|
|-5---------------7------------------------------------------------|
|-------------5-------------------------------5---------------5----|
|------------------------------------------------------------------|

  |               |               |               |   
             
|------------------------------------------------------------------|
|-3---------------1------------------------------------------------|
|---------------------------------5---------------4---------3------|
|------------------------------------------------------------------|

  |               |               |               |   
             
|------------------------------------------------------------------|
|------------------------------------------------------------------|
|-----------------3---------4---------------------4---------5------|
|------------------------------------------------------------------|

  |               |               |               |   
             
|------------------------------------------------------------------|
|---------------------------1---------------------1----------------|
|-----------------5-----------------------------------------5------|
|------------------------------------------------------------------|

  |               |               |               |   
             
|------------------------------------------------------------------|
|-------------------------------------------5----------------------|
|-----------------------------------------------------------3------|
|-----------------4---------3--------------------------------------|

  |               |               |               |   
             
|------------------------------------------------------------------|
|-------------------------------------------------5----------------|
|-------------3---5---------------6--------------------------------|
|-------------------------------------------------------------8----|

  |               |               |               |   
             
|------------------------------------------------------------------|
|-----------------10--------------7--------------------------------|
|-8-----------------------------------------------8----------------|
|------------------------------------------------------------------|

  |               |               |               |   
             
|------------------------------------------------------------------|
|-------------------------------------------------3----------------|
|-1---------------3---------------5--------------------------------|
|-------------1-------------------------------1---------------1----|

  |               |               |               |   
             
|-------------------------------------------------7----------------|
|---------------------------------5--------------------------------|
|-5-----------5---5---------------------------5---------------5----|
|------------------------------------------------------------------|

  |               |               |               |   
             
|------------------------------------------------------------------|
|-----------------5------------------------------------------------|
|-3-------------------------------6---------------3----------------|
|------------------------------------------------------------------|

  |               |               |               |   
             
|-----------------5---------------2--------------------------------|
|-3-----------------------------------------------3----------------|
|-----------3-------------------------------------------------3----|
|------------------------------------------------------------------|

  |               |               |               |   
             
|-----------------3------------------------------------------------|
|---------------------------------3---------------0----------------|
|-1----------------------------------------------------------------|
|------------------------------------------------------------------|

  |               |               |               |   
             
|-----------------8-------------------------------7----------------|
|-6-------------------------------5--------------------------------|
|---------------------------------------------5---------------5----|
|------------------------------------------------------------------|

  |               |               |               |   
             
|---------------------------------5--------------------------------|
|-----------------5-------------------------------5-------------4--|
|-3----------------------------------------------------------------|
|------------------------------------------------------------------|

  |               |               |               |   
             
|-----------------5------------------------------------------------|
|-3-------------------------------7--------------------------------|
|-------------------------------------------------8----------------|
|------------------------------------------------------------------|

  |               |               |               |   
             
|------------------------------------------------------------------|
|-----------------3------------------------------------------------|
|-1-------------------------------5---------------1----------------|
|-----------1-------------------------------------------------1----|

  |               |               |               |   
             
|-------------------------------------------------7----------------|
|---------------------------------5-----------5--------------------|
|-5-----------5---5------------------------------------------------|
|------------------------------------------------------------------|

  |               |               |               |   
             
|------------------------------------------------------------------|
|---------------------------------1---------------5----------------|
|-3-----------3---5-------------------------------------------3----|
|------------------------------------------------------------------|

  |               |               |               |   
             
|------------------------------------------------------------------|
|-3---------------1------------------------------------------------|
|---------------------------------5---------------3----------------|
|-------------5----------------------------------------------------|

  |               |               |               |   
             
|-3----------------------------------------------------------------|
|-------------------------------------------------3----------------|
|-----------------1---------------5--------------------------------|
|------------------------------------------------------------------|

  |               |               |               |   
             
|------------------------------------------------------------------|
|------------------------------------------------------------------|
|-1---------------1-------------------------------4----------------|
|---------------------------------5-----------5--------------------|

  |               |               |               |   
             
|---------------------------------7--------------------------------|
|-----------------7-------------------------------7-------------1--|
|-5----------------------------------------------------------------|
|------------------------------------------------------------------|

  |               |               |               |   
             
|-------------------------------------------------2----------------|
|-----------------2---------------4--------------------------------|
|-5----------------------------------------------------------------|
|-------------5-------------------------------5---------------5----|

  |               |               |               |   
             
|-----------------2---------------4---------------7----------------|
|-5----------------------------------------------------------------|
|-------------5-------------------------------5---------------5----|
|------------------------------------------------------------------|

  |               |               |               |   
             
|-----------------7---------------4--------------------------------|
|-5-----------------------------------------------5----------------|
|-----------5-------------------------------------------------5----|
|------------------------------------------------------------------|

  |               |               |               |   
             
|------------------------------------------------------------------|
|-----------------5------------------------------------------------|
|-3-------------------------------7--------------------------------|
|-------------------------------------------------8----------------|

  |               |               |               |   
             
|-5----------------------------------------------------------------|
|-------------------------------------------------5----------------|
|---------------------------------7--------------------------------|
|-----------------8------------------------------------------------|

  |               |               |               |   
             
|-----------------5---------------2--------------------------------|
|-3-----------------------------------------------3----------------|
|------------------------------------------------------------------|
|------------------------------------------------------------------|

  |               |               |               |   
             
|------------------------------------------------------------------|
|-------------------------------------------------3----------------|
|-2---------------4---------------5--------------------------------|
|-------------1-------------------------------1---------------1----|

  |               |               |               |   
             
|------------------------------------------------------------------|
|---------------------------------1---------------5----------------|
|-3-----------3---5-------------------------------------------3----|
|------------------------------------------------------------------|

  |               |               |               |   
             
|------------------------------------------------------------------|
|-3---------------1------------------------------------------------|
|---------------------------------5---------------3-----------2----|
|-------------1----------------------------------------------------|

  |               |               |               |   
             
|-----------------3------------------------------------------------|
|---------------------------------3--------------------------------|
|-1-----------------------------------------------5----------------|
|------------------------------------------------------------------|

  |               |               |               |   
             
|-------------------------------------------------7----------------|
|---------------------------------5-----------5--------------------|
|-5-----------5---5------------------------------------------------|
|------------------------------------------------------------------|

  |               |               |               |   
             
|------------------------------------------------------------------|
|---------------------------------1---------------5----------------|
|-3---------------5------------------------------------------------|
|------------------------------------------------------------------|

  |               |               |               |   
             
|-----------------5---------------2--------------------------------|
|-3-----------------------------------------------3----------------|
|------------------------------------------------------------------|
|------------------------------------------------------------------|

  |               |               |               |   
             
|------------------------------------------------------------------|
|------------------------------------------------------------------|
|-1-----------1---3---------------2---------------2----------------|
|------------------------------------------------------------------|

  |               |               |               |   
             
|------------------------------------------------------------------|
|---------------------------------3---------------5----------------|
|-1-----------1---1------------------------------------------------|
|------------------------------------------------------------------|

  |               |               |               |   
             
|------------------------------------------------------------------|
|---------------------------------1---------------5----------------|
|-3-----------3---5-------------------------------------------3----|
|------------------------------------------------------------------|

  |               |               |               |   
             
|-----------------5---------------2--------------------------------|
|-3-----------------------------------------------3----------------|
|-----------3-------------------------------------------------3----|
|------------------------------------------------------------------|

  |               |               |               |   
             
|-----------------5------------------------------------------------|
|---------------------------------3--------------------------------|
|-3-----------------------------------------------5----------------|
|------------------------------------------------------------------|

  |               |               |               |   
             
|-----------------7---------------4--------------------------------|
|-5-----------------------------------------------5----------------|
|------------------------------------------------------------------|
|------------------------------------------------------------------|

  |               |               |               |   
             
|------------------------------------------------------------------|
|---------------------------------1---------------5----------------|
|-3---------------5-------------------------------------------3----|
|------------------------------------------------------------------|

  |               |               |               |   
             
|---------------------------------2---------------5----------------|
|-3---------------5------------------------------------------------|
|------------------------------------------------------------------|
|------------------------------------------------------------------|

  |               |               |               |   
             
|------------------------------------------------------------------|
|-----------------1------------------------------------------------|
|-5-------------------------------5---------------1----------------|
|------------------------------------------------------------------|

  |               |               |               |   
             
|------------------------------------------------------------------|
|-5---------------5---------------5---------5----------------------|
|------------------------------------------------------------------|
|-------------3----------------------------------------------------|

  |               |               |               |   
             
|------------------------------------------------------------------|
|-----------------5---------------1--------------------------------|
|-3-----------------------------------------------3----------------|
|-----------3-------------------------------------------------3----|

  |               |               |               |   
             
|-------------------------------------------------5----------------|
|-3---------------5---------------7--------------------------------|
|------------------------------------------------------------------|
|------------------------------------------------------------------|

  |               |               |               |   
             
|-7----------------------------------------------------------------|
|-------------------------------------------------3----------------|
|-----------------5---------------5--------------------------------|
|------------------------------------------------------------------|

  |               |               |               |   
             
|------------------------------------------------------------------|
|-----------------6---------------5---------4----------------------|
|-4----------------------------------------------------------------|
|------------------------------------------------------------------|

  |               |               |               |   
             
|-----------------6------------------------------------------------|
|-4-------------------------------4---------3----------------------|
|------------------------------------------------------------------|
|-------------------------------------------------------------1----|

  |               |               |               |   
             
|------------------------------------------------------------------|
|-3-----------3---2---------------3--------------------------------|
|-------------------------------------------1----------------------|
|------------------------------------------------------------------|

  |               |               |               |   
             
|------------------------------------------------------------------|
|-----------------3------------------------------------------------|
|-1-------------------------------5---------------1----------------|
|------------------------------------------------------------------|

  |               |               |               |   
             
|------------------------------------------------------------------|
|-----------------3------------------------------------------------|
|-1-------------------------------1---------5----------------------|
|-------------1---------------1------------------------------------|

  |               |               |               |   
             
|------------------------------------------------------------------|
|-----------------5------------------------------------------------|
|-5-------------------------------6---------------5----------------|
|------------------------------------------------------------------|

  |               |               |               |   
             
|-----------------7------------------------------------------------|
|---------------------------------7--------------------------------|
|-5-----------------------------------------------9----------------|
|------------------------------------------------------------------|

  |               |               |               |   
             
|-12--------------12--------------10--------------10---------------|
|------------------------------------------------------------------|
|------------------------------------------------------------------|
|------------------------------------------------------------------|

  |               |               |               |   
             
|-9---------------9---------------7---------------7----------------|
|------------------------------------------------------------------|
|------------------------------------------------------------------|
|------------------------------------------------------------------|

  |               |               |               |   
             
|-----------------5------------------------------------------------|
|---------------------------------5---------------2----------------|
|-3----------------------------------------------------------------|
|------------------------------------------------------------------|

  |               |               |               |   
             
|------------------------------------------------------------------|
|-----------------------------------------------------------3------|
|-3-----------3---3---------------3---------------3----------------|
|------------------------------------------------------------------|

  |               |               |               |   
             
|---------------------------------5---------6---------------5------|
|---------------------------3--------------------------------------|
|------------------------------------------------------------------|
|------------------------------------------------------------------|

  |               |               |               |   
             
|------------------------------------------------------------------|
|-----------6------------------------------------------------------|
|---------------------------8---------------5---------------4------|
|------------------------------------------------------------------|

  |               |               |               |   
             
|------------------------------------------------------------------|
|-------------------------------------------------6----------------|
|-----------------6---------------8--------------------------------|
|------------------------------------------------------------------|

  |               |               |               |   
             
|------------------------------------------------------------------|
|-------------------------------------------------5----------------|
|-3---------------5---------------6---------------------------3----|
|------------------------------------------------------------------|

  |               |               |               |   
             
|-------------------------------------------------8----------------|
|---------------------------------6-----------6--------------------|
|-----------------8------------------------------------------------|
|-6-----------6----------------------------------------------------|

  |               |               |               |   
             
|------------------------------------------------------------------|
|-5---------------3---------------2--------------------------------|
|-------------------------------------------------5-----------4----|
|-------------3----------------------------------------------------|

  |               |               |               |   
             
|------------------------------------------------------------------|
|---------------------------------1---------------5----------------|
|-3-----------3---5-------------------------------------------3----|
|------------------------------------------------------------------|

  |               |               |               |   
             
|-----------------5------------------------------------------------|
|-3-------------------------------7--------------------------------|
|-------------------------------------------------8----------------|
|------------------------------------------------------------------|

  |               |               |               |   
             
|---------------------------------7-----------------------------1--|
|-----------------7-------------------------------7----------------|
|-5----------------------------------------------------------------|
|------------------------------------------------------------------|

  |               |               |               |   
             
|---------------------------------4---------------7----------------|
|-5---------------7------------------------------------------------|
|------------------------------------------------------------------|
|------------------------------------------------------------------|

  |               |               |               |   
             
|-5----------------------------------------------------------------|
|-------------------------------------------------5----------------|
|-----------------3---------------6--------------------------------|
|------------------------------------------------------------------|

  |               |               |               |   
             
|-------------------------------------------------5----------------|
|-----------------5---------------7--------------------------------|
|-6----------------------------------------------------------------|
|-------------8-------------------------------8---------------8----|

  |               |               |               |   
             
|------------------------------------------------------------------|
|-----------------3------------------------------------------------|
|-5-------------------------------5---------------5----------------|
|------------------------------------------------------------------|

  |               |               |               |   
             
|------------------------------------------------------------------|
|------------------------------------------------------------------|
|-------------------------------------------------8----------------|
|-7---------------9---------------10-------------------------------|

  |               |               |               |   
             
|-----------------5------------------------------------------------|
|---------------------------------5--------------------------------|
|-------------------------------------------------6----------------|
|-8----------------------------------------------------------------|

  |               |               |               |   
             
|---------------------------------------------------------------2--|
|---------------------------------7--------------------------------|
|-----------------7-------------------------------7----------------|
|-5----------------------------------------------------------------|

  |               |               |               |   
             
|-------------------------------------------------8----------------|
|-6---------------8---------------10-------------------------------|
|-------------6-------------------------------6---------------6----|
|------------------------------------------------------------------|

  |               |               |               |   
             
|-----------------7---------------4--------------------------------|
|-5-----------------------------------------------5----------------|
|------------------------------------------------------------------|
|------------------------------------------------------------------|

  |               |               |               |   
             
|------------------------------------------------------------------|
|-------------------------------------------------5----------------|
|-3-----------3---5---------------6---------------------------3----|
|------------------------------------------------------------------|

  |               |               |               |   
             
|-------------------------------------------------5----------------|
|-----------------5---------------7--------------------------------|
|-6----------------------------------------------------------------|
|------------------------------------------------------------------|

  |               |               |               |   
             
|-7----------------------------------------------------------------|
|------------------------------------------------------------------|
|-----------------5---------------5---------------8----------------|
|------------------------------------------------------------------|

  |               |               |               |   
             
|------------------------------------------------------------------|
|------------------------------------------------------------------|
|-------------------------------------------------8----------------|
|-7---------------9---------------10-------------------------------|

  |               |               |               |   
             
|------------------------------------------------------------------|
|-------------------------------------------------5----------------|
|-----------------5---------------6--------------------------------|
|-8-----------8-----------------------------------------------8----|

  |               |               |               |   
             
|------------------------------------------------------------------|
|---------------------------------7-----------------------------7--|
|-----------------7-------------------------------7----------------|
|-5----------------------------------------------------------------|

  |               |               |               |   
             
|---------------------------------5---------------8----------------|
|-6---------------8------------------------------------------------|
|-------------6-------------------------------6---------------6----|
|------------------------------------------------------------------|

  |               |               |               |   
             
|------------------------------------------------------------------|
|-5----------------------------------------------------------------|
|-----------------8---------------7---------------5----------------|
|-------------7----------------------------------------------------|

  |               |               |               |   
             
|------------------------------------------------------------------|
|-----------------5------------------------------------------------|
|---------------------------------6--------------------------------|
|-8---------3-------------------------------------8-----------3----|

  |               |               |               |   
             
|---------------------------------5--------------------------------|
|-----------------7------------------------------------------------|
|-8----------------------------------------------------------------|
|-------------------------------------------------8----------------|

  |               |               |               |   
             
|------------------------------------------------------------------|
|-----------------7------------------------------------------------|
|-5-------------------------------8---------------5----------------|
|------------------------------------------------------------------|

  |               |               |               |   
             
|---------------------------------6--------------------------------|
|-----------------6-------------------------------6----------------|
|------------------------------------------------------------------|
|-9-------------------------------------------------------------9--|

  |               |               |               |   
             
|-5----------------------------------------------------------------|
|-------------------------------------------------5----------------|
|---------------------------------6--------------------------------|
|-----------------8------------------------------------------------|

  |               |               |               |   
             
|------------------------------------------------------------------|
|------------------------------------------------------------------|
|-----------------7------------------------------------------------|
|-5-------------------------------9---------------5----------------|

  |               |               |               |   
             
|-----------------8---------------5--------------------------------|
|-6-----------------------------------------------6----------------|
|------------------------------------------------------------------|
|------------------------------------------------------------------|

  |               |               |               |   
             
|-------------------------------------------------7----------------|
|-5---------------7---------------9--------------------------------|
|-------------5-------------------------------5---------------5----|
|------------------------------------------------------------------|

  |               |               |               |   
             
|-------------------------------------------------6----------------|
|-----------------6---------------8--------------------------------|
|-9----------------------------------------------------------------|
|------------------------------------------------------------------|

  |               |               |               |   
             
|-------------------------------------------------5----------------|
|-----------------5---------------7--------------------------------|
|-8----------------------------------------------------------------|
|------------------------------------------------------------------|

  |               |               |               |   
             
|---------------------------------5---------------8----------------|
|-6---------------8------------------------------------------------|
|------------------------------------------------------------------|
|------------------------------------------------------------------|

  |               |               |               |   
             
|------------------------------------------------------------------|
|-5----------------------------------------------------------------|
|-----------------8---------------7---------------5----------------|
|-------------7----------------------------------------------------|

  |               |               |               |   
             
|------------------------------------------------------------------|
|-----------------5------------------------------------------------|
|---------------------------------6--------------------------------|
|-8---------3-------------------------------------8-----------3----|

  |               |               |               |   
             
|------------------------------------------------------------------|
|-6-----------------------------------------------8----------------|
|-----------------8---------------9--------------------------------|
|------------------------------------------------------------------|

  |               |               |               |   
             
|------------------------------------------------------------------|
|-------------------------------------------------7----------------|
|-5---------------7---------------8--------------------------------|
|-------------5-------------------------------5---------------5----|

  |               |               |               |   
             
|------------------------------------------------------------------|
|-----------------6------------------------------------------------|
|---------------------------------7--------------------------------|
|-9-----------------------------------------------9---------1------|

  |               |               |               |   
             
|------------------------------------------------------------------|
|------------------------------------------------------------------|
|------------------------------------------------------------------|
|------------------------------------------------------------------|

  |               |               |               |   
             
|------------------------------------------------------------------|
|------------------------------------------------------------------|
|------------------------------------------------------------------|
|-----------1---------------------1-------------------------1------|

  |               |               |               |   
             
|------------------------------------------------------------------|
|------------------------------------------------------------------|
|------------------------------------------------------------------|
|------------------------------------------------------------------|

  |               |               |               |   
             
|------------------------------------------------------------------|
|------------------------------------------------------------------|
|---------------------------------------------------------3--------|
|-----------1---------------------1--------------------------------|

  |               |               |               |   
             
|------------------------------------------------------------------|
|------------------------------------------------------------------|
|------------------------------------------------------------------|
|------------------------------------------------------------------|

  |               |               |               |   
             
|------------------------------------------------------------------|
|---------------------------------------------------------3--------|
|------------------------------------------------------------------|
|------------------------------------------------------------------|

  |               |               |               |   
             
|------------------------------------------------------------------|
|------------------------------------------------------------------|
|------------------------------------------------------------------|
|------------------------------------------------------------------|

  |               |               |               |   
             
|------------------------------------------------------------------|
|------------------------------------------------------------------|
|---------------------------------------------------------5--------|
|------------------------------------------------------------------|

  |               |               |               |   
             
|------------------------------------------------------------------|
|------------------------------------------------------------------|
|------------------------------------------------------------------|
|------------------------------------------------------------------|

  |               |               |               |   
             
|------------------------------------------------------------------|
|------------------------------------------------------------------|
|------------------------------------------------------------------|
|---------------------------------------------------------3--------|

  |               |               |               |   
             
|------------------------------------------------------------------|
|------------------------------------------------------------------|
|------------------------------------------------------------------|
|------------------------------------------------------------------|

  |               |               |               |   
             
|------------------------------------------------------------------|
|------------------------------------------------------------------|
|-----------------------------------------------------------3------|
|------------------------------------------------------------------|

  |               |               |               |   
             
|------------------------------------------------------------------|
|------------------------------------------------------------------|
|------------------------------------------------------------------|
|------------------------------------------------------------------|

  |               |               |               |   
             
|------------------------------------------------------------------|
|------------------------------------------------------------------|
|------------------------------------------------------------------|
|-----------------------------------------------------------1------|

  |               |               |               |   
             
|------------------------------------------------------------------|
|-------------------------------------------------1----------------|
|---------------------------------3--------------------------------|
|-----------------5------------------------------------------------|

  |               |               |               |   
             
|------------------------------------------------------------------|
|-3---------------------------------------------------------3------|
|-----------------------------------------------------------1------|
|-----------------2-------1----------------------------------------|

Created with TablEdit http://www.tabledit.com/


     
Добавлено: 23.08.2013
Вам также может быть интересно:
Другие материалы по этой песне:
  • Аккорды и текст

Страница создана 23.08.2013
http://primanota.ru/duke-ellington/perdido-chords.htm
Привет, Гость.
Предлагаем пройти революционный курс по гитаре.
Подарок от PrimaNota.Ru, забирай!